Guitaretab - guitar tabs
Song name
# A B C D E F G H I J K L M N O P Q R S T U V W X Y Z

The Black Mages - The Final Battle tab

The "verse" section is played first on a synthesizer, then a guitar comes in and 
plays the same thing.

-------------------------------------------------------------------------------
			     The Final Battle - The Black Mages
-------------------------------------------------------------------------------
Tabbed by: Untame Zerg
Email:untamezerg@gmail.com
Notes: This is my first serious transcription, and as far as I know, the only tab 
for The Final Battle that exist.

Tuning: Standard

| /  slide up
| \  slide down
| h  hammer-on
| p  pull-off
| ~  vibrato
| +  harmonic
| x  Mute note

INTRO- Supposed to be played on a clarinet (I think).
(Clean)
e|--------------------------------------------------------------------------|
B|--------------------------------------------------------------------------|
G|14-15-17----------------------------14-15-17------------------------------|
D|---------13-14-16----------------------------13-14-16---------------------|
A|------------------12-13-15----------------------------12-13-15------------|
E|---------------------------11-12-14----------------------------11-12-14---|

e|--------------------------------------------------------------------------|
B|------------------------------15----------------------------------15------|
G|------------------13----16-13----16-------------------13----16-13----16---|
D|------------15-------15-------------------------15-------15---------------|
A|14----17-14----17-------------------14----17-14----17---------------------|
E|---16----------------------------------16---------------------------------|
Play that whole thing 3 times.
[ Tab from: http://www.guitaretab.com/t/the-black-mages/180633.html ]
PRE-VERSE (for lack of a better term)-
(Overdriven)
  Let ring--------------------------|Let ring-------------------------------
e|--------------------------------------------------------------------------|
B|--------------------------------------------------------------------------|
G|--------------------------------------------------------------------------|
D|2----------------------------------\2-------------------------------------|
A|0----------------------------------\0-------------------------------------|
E|--------------------------------------------------------------------------|

VERSE (for lack of a better term)-Once on synthesizer, then same on guitar
(Overdriven)
e|------------12-15--14h15p14-----------------------------------------------|
B|/13-------13-----------------15-18-17-15-17~------------------------------|
G|---14-16------------------------------------------------------------------|
D|--------------------------------------------------------------------------|
A|--------------------------------------------------------------------------|
E|--------------------------------------------------------------------------|
Play that bit twice

e|/17-------17-/20-19-17-18-17h18p17-16-17----------------------------------|
B|----17-18-----------------------------------------------------------------|
G|--------------------------------------------------------------------------|
D|--------------------------------------------------------------------------|
A|--------------------------------------------------------------------------|
E|--------------------------------------------------------------------------|
And that bit twice

e|16-x-16----------16-17-16-14----------------------------------------------|
B|----------17-19--------------12-------------------------------------------|
G|--------------------------------15-x-13-h15p13-\12------------------------|
D|--------------------------------------------------------------------------|
A|--------------------------------------------------------------------------|
E|--------------------------------------------------------------------------|


That's all I have so far. Will update when more complete.
Related for The Final Battle tab
Advertisement will be closed in 10 seconds