Song name
# A B C D E F G H I J K L M N O P Q R S T U V W X Y Z

The Black Mages - To Zanarkand tab

The Black Mages - To Zanarkand Tab

Tuning: Standard (EADGBe)

e|-12----------12-14-15-10----------10-12-14---------------------|
B|-12-------12-------12-10----10----10-10-15---------------------|
G|-12----12-------------11-11----11------------------------------|
D|-14-14----------------0----------------------------------------|
A|---------------------------------------------------------------|
E|-12------------------------------------------------------------|

e|------------------------10-2-----------2-----------------------|
B|-12---12---12---12---10----3-3-------3-------------------------|
G|-9--9----9----9-9--9-------4---4---4---------------------------|
D|-10-------------10---------------4-----------------------------|
A|---------------------------2-----------------------------------|
E|---------------------------------------------------------------|

e|-0---0---0---0-------3-----------------------------------------|
B|-1---1---1---1---3-----1-----------1---------------------------|
G|-2-2---2---2-2-2---2---2-2-------2---2-------2-----------------|
D|-----------------------3---3---3-------3---3-------------------|
A|-0-----------0---------------3-----------3---------------------|
E|-----------------------1-----------1---------------------------|

e|-0-------0-2-3---2---0-------0---------------------------------|
B|-------0-----------------3-----3-1-0-----0---------------------|
G|-----0---------0---0---0---2-----------0-----------------------|
D|---2---------------------0-----------0-------------------------|
A|-------------3-------------------------------------------------|
E|-0---------------------------------3-------3-2-----------------|

e|-0-------0-2-3---2---3---5-----5-7-----------------------------|
B|-------0-----------------7---8---8-8-------8-------------------|
G|-----0---------0---0---0-7-7-----9---9---9---------------------|
D|---2---------------------0-------------9-----------------------|
A|-------------3-------------------7-----------------------------|
E|-0-------------------------------------------------------------|

e|-0-------0-2-3---2---0-------0---------------------------------|
B|-------0-----------------3-----3-1-0-----0---------------------|
G|-----0---------0---0---0---2-----------0---0-2-----------------|
D|---2---------------------0-----------0-------------------------|
A|-------------3-------------------------------------------------|
E|-0---------------------------------3---------------------------|

e|------------------------------------------|--0-------0-3-------|
B|-0---0---0---0---3---------------------1--|--------1-----------|
G|---0---0---0---2---0-0--------------0-----|------0-------------|
D|-------------0-----2---4-0-2-----2--------|----2---------------|
A|-3-----------------3-------3---3----------|--------------------|
E|-----------------------------3------------|--------------------|

e|-5-------12---12----10----8-----7-------15----15---------------|
B|-------0-13---13----12----10----8-------0--------0----------10-|
G|-5---2------9-10----------------0---0---12----12------11-12----|
D|---2-----10------10-------7--10---0---7----12------14----------|
A|-0------------------8--10--------------------------------------|
E|----------------------------------------------0----------------|

e|-7-------15----15---------------7--------14----14--------------|
B|-8-------0--------0----------10-7--------------10--------------|
G|-0---0---12----12------11-12----------11-12-14-11--------------|
D|---0---7----12------14--------------9----------11--------------|
A|----------------------------------9----------------------------|
E|---------------0----------------7------------------------------|

e|-5-------12----12-11-------------2---2---0-----------------6---|
B|-5-------10----10--------0-------3---0---0-----3---2-------5---|
G|---------------------------------4-------------4---2---2-4-6---|
D|-----7-9-10----9-----9-7-4-------0-4-------------0-2-2---------|
A|---7--------12-----------2---2-4-------2---0-------0---------7-|
E|-5-------------------------2---------3---3---3-----------------|

e|-5-----------4-------2-----------------------------------------|
B|-7-------------5---0-3-------0-----------7---------------------|
G|-6---------4-6---6-0-4-2---2---------4-6-----------------------|
D|-4---4-6-7---6-----------4-2-1---1-4---------------------------|
A|---4-------------------4-------2-------------------------------|
E|-------------------3---2-----2---------------------------------|

e|-0-------0-2-3---2---0-------0---------------------------------|
B|-------0-----------------3-----3-1-0-----0---------------------|
G|-----0---------0---0---0---2-----------0-----------------------|
D|---2---------------------0-----------0-------------------------|
A|-------------3-------------------------------------------------|
E|-0---------------------------------3-------3-2-----------------|

e|-0-------0-2-3---2---3---5-----5-7-----------------------------|
B|-------0-----------------7---8---8-8-------8-------------------|
G|-----0---------0---0---0-7-7-----9---9---9---------------------|
D|---2---------------------0-------------9-----------------------|
A|-------------3-------------------7-----------------------------|
E|-0-------------------------------------------------------------|

e|-0-------0-2-3---2---0-------0---------------------------------|
B|-------0-----------------3-----3-1-0-----0---------------------|
G|-----0---------0---0---0---2-----------0---0-2-----------------|
D|---2---------------------0-----------0-------------------------|
A|-------------3-------------------------------------------------|
E|-0---------------------------------3---------------------------|

e|------------------------------------------|--0-------0-3-------|
B|-0---0---0---0---3---------------------1--|--------1-----------|
G|---0---0---0---2---0-0--------------0-----|------0-------------|
D|-------------0-----2---4-0-2-----2--------|----2---------------|
A|-3-----------------3-------3---3----------|--------------------|
E|-----------------------------3------------|--------------------|

I only take credit for puttin this together.
I put this together for some months ago and thought why I shouldnt share it?
 
So here it is and don't ask me from where I got the parts from, 
cuz I can't remember :)

Here you go, hope you enjoy it and please rate :)
Tap to rate this tab
 
# A B C D E F G H I J K L M N O P Q R S T U V W X Y Z