The Black Mages - Matoyas Cave tab

*************************************************************************
                      Black Mages - Matoya's Cave
*************************************************************************

Note:
Let ring (hold notes and keep them sounding) the notes in both parts
to make it sound more acurrate


  INTRO I - Acoustic guitar

|-------------------------------------------------------0--|
|-----12--8--10--7--------7h8p7------8--------10-------3---|
|-----------------------------------0--------0--------0----|
|-----12--9--11--7------7--------7/9-----9/11--------4-----|
|----------------------------------------------------------|
|-0-------------------0------------------------------------|


|----------------------------------------------------------|
|-----12--8--10--7--------8p7-----3------5------7------8---|
|------------------------0-------0------0------0------0----|
|-----12--9--11--7------7-------4 / / /5 / / /7 / / /9 / /-|
|----------------------------------------------------------|
|-0-------------------0------------------------------------|
                                in this part hold the notes
                                and slide to the next one

|----------------------------------------------------------|
|--------10------12----14------12------9-----8-----7-------|
|-------0-------0--------0-------0------0-----0-----0------|
|-(9)/11 / / /12----------14------11-----8-----7-----5-----|
|----------------------12----------------------------------|
|----------------------------------------------------------|
  from last bar

|---------------------------------12+--|
|-5-----3-----2----------------14+-----|
|--0-----0-----0-----------12+---------|
|---4-----2-----2------14+-------------|
|----------------0---------------------|
|--------------------------------------|
                       pitch harmonics



  INTRO II - Overdriven guitar

|----------------------------------------------------------|
|----7---8~~-7-------------------------10---12~-10---------|
|---7----------9-7~~-9-7-6~~~~~------11--11---------12-11--|
|-/9---9--------------------------/12----------------------|
|----------------------------------------------------------|
|----------------------------------------------------------|


|----------------------------------------------------------|
|------------7-8-8b10r8-----------------8-10-10b12r10------|
|-12-11-9~~--------------6-9--7p6h7------------------------|
|-----------------------------------9----------------------|
|----------------------------------------------------------|
|----------------------------------------------------------|


|------------------------------------------9-12p10p9h10----|
|----8--7h8p7-------10-12-12b14r12---10-12--------------12-|
|-7-----------9~-------------------------------------------|
|----------------------------------------------------------|
|----------------------------------------------------------|
|----------------------------------------------------------|


|---------------------------------------------------------|
|-12-10-8-7~~~--------------------------------------------|
|-----------------7-9-7~~~--9p7p6-----7~~~---7p6---6h7~~~-|
|---------------/9------------------/7-----------9--------|
|---------------------------------------------------------|
|---------------------------------------------------------|


|---------------------------------------------------------|
|-------------------10p8----8h10~~~---7-------------------|
|-11p9----9h11~~~--------11-------------9-7-6-9-7-6-------|
|------12-------------------------------------------9~~~--|
|---------------------------------------------------------|
|---------------------------------------------------------|

...And there you have! Here is where the funky stuff comes in...
(...I'll to try to tab those sometime...)

Thanks! Comment!
Tap to rate this tab
 
# A B C D E F G H I J K L M N O P Q R S T U V W X Y Z