Song name
# A B C D E F G H I J K L M N O P Q R S T U V W X Y Z

The Black Mages - Decisive Battle tab

Song: Decisive Battle
Artist: The Black Mages
Tuning: E A D G B E
Tabbed by Porrdossen Patrik!
Order to play: Intro, Main, Part1, Main, Part2,part2 again after middle part, Solo

Intro: OBS: 7 string,
|---------------7-8/10--------------7-------------------------|
|--------7-8-10-----------------------10-8-7-8-10-7\----/3----|
|----7-9------------------------7-9---------------------------|
|-10----------------------------------------------------------|
|-------------------------------------------------------------|
|-------------------------------------------------------------|
|-------------------------------------------------------------|

Main:
|-----------------------------------------------|
|------7-8-7------------------------------------|
|----9-------9----------------------------------|
|--9-----------9-------------------------7--9---|
|----------------10--9--10--7---10-9-10------10-|
|-----------------------------------------------|


|------------------------------------------------------|
|-----------------------------------8--7---------------|
|---------5---------5---9---8---9--------9-------------|
|-9-7-9----------5--------9---9------------9-----------|
|------------7----------------------------------10--7--|
|------------------------------------------------------|


|-----------------------------------------------------------|
|-----------------------------------------------------------|
|-------------------------------------5---7----9----11------|
|-------------------7--9-----7--9--7----5---7----9-----9----|
|9--10--7---10-9-10-------10--------------------------------|
|-----------------------------------------------------------|

Part1:
|--8---(8)--------------7--8--10----------------8---(8)-|
|---------8---7--8--10------------8--7-----------------8|
|--------------------------------------------9----------|
|-------------------------------------------------------|
|-------------------------------------------------------|
|-------------------------------------------------------|


|----------------8---(8)----------7--8--10--9--10--12--|
|7--5------5------------7--8--10-----------------------|
|-------7----------------------------------------------|
|------------------------------------------------------|
|------------------------------------------------------|
|------------------------------------------------------|

|15-----12----------------------------------------------|
|-----------15-13---------------------------------------|
|-----------------12------------------------------------|
|--------------------14-12------------------------------|
|--------------------------15-13---(13)-----------------|
|-------------------------------------------------------|

------> MAIN ------> Play

Part2:

|----------------------------7----------------------------|
|--8---(8)---------7--8--10--------------8--5-------------|
|---------9--7--7---------------9--7--5--------7--5--4----|
|-------------------------------------------------------7-|
|---------------------------------------------------------|
|---------------------------------------------------------|

|-----------------------------7-------------------------|
|---8---(8)---------7--8--10-----10-10-10--13--(13)-----|
|----------9--7--7--------------------------------------|
|-------------------------------------------------------|
|-------------------------------------------------------|
|-------------------------------------------------------|

|-------12----------------------------------------------|
|-----------15-13---------------------------------------|
|-----------------12------------------------------------|
|--------------------14-12------------------------------|
|--------------------------15-13---(13)-----------------|
|-------------------------------------------------------|


Solo:

                        ^
              Full bend |
|---------12----14-----15---(15)-15--14-12---------|
|--10-12-----12----12----------------------15-13-12|
|--------------------------------------------------|
|--------------------------------------------------|
|--------------------------------------------------|
|--------------------------------------------------|

|-------------------------------------------------------|
|-------13-12-------------------------------------------|
|-14-14-------14-12-11-14-12-11-------11-9-12-11-9------|
|-------------------------------14-12--------------12-10|
|-------------------------------------------------------|
|-------------------------------------------------------|


|-------------------------------------------------------|
|-------------------------------------------------------|
|-9-7------7--------------------------------------------|
|-----10-9---10-9-7-10-9-7----9-7--------5-4-----4------|
|--------------------------10-----10-9-7-----7-5---7-5-3|
|-------------------------------------------------------|

|-------------------------------------------------------|
|-------------------------------------------------------|
|-------------------------------------------------------|
|-------------------------------------------------------|
|5-7-3-2-5-3-2---3-2---3-2------------------------------|
|--------------5-----5-----5-3-2-5-3-2-0-3-2-0-5-2-0-5-2|

|-----------------------------------------------------------15-------------|
|--------------------------------------------------12------------\---------|
|--------------------------------------------------------\--------\--------|
|---------------------------------------------------------\--------3-------|
|----------------------------------------------------------\3--------------|
|0-5-2-0-5-2-0-5-2-0-5-2-0-5-2-0-5-2-0-5-2-0-5-2---------------------------|
Tap to rate this tab
# A B C D E F G H I J K L M N O P Q R S T U V W X Y Z