Song name
# A B C D E F G H I J K L M N O P Q R S T U V W X Y Z

The Black Mages - To Zanarkand tab

Artist   - The Black Mages
Song     - To Zanarkand
Composer - Nobuo Uematsu


This song IS in drop D, because of that one stupid note at the end of the arpeggio.

Another annoying part is the insanely high frets in two or three places. The only way to
this, unless you have a super-long fretboard, is to use a little metal thing called a
and use it to press down past the final fret.


Guitar 1

e| ---0---------------0---2---3---------------------- |
B| ---------------0-------3---1---------------------- |
G| -----------0-------------------------------------- |
D| -------2------------------------------------------ |
A| -------------------------------------------------- |
D| -------------------------------------------------- |

e| ---2-------------------0---2---------------------- |
B| ---------------1---3---1---3---------------------- |
G| -----------2-------------------------------------- |
D| -------4------------------------------------------ |
A| -------------------------------------------------- |
D| -------------------------------------------------- |

e| ---7---7---7---7---5---10------------------------- |
B| -------------------------------------------------- |
G| -------------------------------------------------- |
D| -------------------------------------------------- |
A| -------------------------------------------------- |
D| -------------------------------------------------- |

e| ---2-------------------0---2---------------------- |
B| -----------0---2---3-------3---------------------- |
G| -------------------------------------------------- |
D| -------4------------------------------------------ |
A| -------------------------------------------------- |
D| -------------------------------------------------- |

e| ---0---0---0---0-------3-------------------------- |
B| -------------------3-------1---------------------- |
G| -------------------------------------------------- |
D| -------------------------------------------------- |
A| -------------------------------------------------- |
D| -------------------------------------------------- |

e| -------------------------------------------------- |
B| -----------------------1-------------------------- |
G| ---------------0---2---0-------------------------- |
D| ---3-------3-------3------------------------------ |
A| -------3------------------------------------------ |
D| -------------------------------------------------- |

e| ---------------0---------------------------------- |
B| ---3-------3-------------------------------------- |
G| ---2---2------------------------------------------ |
D| -------------------------------------------------- |
A| -------------------------------------------------- |
D| -------------------------------------------------- |

e| ---2---0------------------------------------------ |
B| ---3---1---3---1---3---1-------------------------- |
G| -----------3-------0------------------------------ |
D| ---------------2-------2-------------------------- |
A| -------------------------------------------------- |
D| -------------------------------------------------- |

e| ---------------------------0---------------------- |
B| -----------1---3-------3-------------------------- |
G| ---2---2---0-------2-------2---------------------- |
D| ---3---3-------3---0---3-------------------------- |
A| -------------------------------------------------- |
D| -------------------------------------------------- |

e| ---1---0---1---3---1---3---5---------------------- |
B| ---3---1---3---1-------1---2---------------------- |
G| -------------------3------------------------------ |
D| -------------------------------------------------- |
A| -------------------------------------------------- |
D| -------------------------------------------------- |

e| ---14--------14---16------------------------------ |
B| --------14---------------------------------------- |
G| ------------------11------------------------------ |
D| ---16--------16----------------------------------- |
A| --------16---------------------------------------- |
D| -------------------------------------------------- |

e| ---17---16---14---12---14---12-------------------- |
B| -------------------------------------------------- |
G| ---14--------------------------------------------- |
D| --------16---16---14---16---14-------------------- |
A| -------------------------------------------------- |
D| -------------------------------------------------- |

e| ---9-------------------------------0-------------- |
B| -----------0---2---2---2---2---0------------------ |
G| ---6---2---------------------------1-------------- |
D| ---------------4---4---4---4---2------------------ |
A| -------------------------------------------------- |
D| -------------------------------------------------- |

e| -------------------------------------------------- |
B| -------------------------------------------------- |
G| ---2---1------------------------------------------ |
D| ---4-------2-------------------------------------- |
A| ---5---4------------------------------------------ |
D| -------------------------------------------------- |

e| ------------------------0------------------------- |
B| ---------------------3-----3--------------3------- |
G| ------------------2--------------------2---------- |
D| ---4-----0--2--4--------------0--2--4------------- |
A| ------0------------------------------------------- |
D| -------------------------------------------------- |

e| --2-----------2--5--10--14--17--22--26------------ |
B| -----------3-------------------------------------- |
G| --------2----------------------------------------- |
D| -----4-------------------------------------------- |
A| -------------------------------------------------- |
D| -------------------------------------------------- |

e| --22--17--14--10--5--2---------------------------- |
B| ------------------------3------------------------- |
G| ---------------------------2---------------------- |
D| ------------------------------4--0---------------- |
A| ------------------------------------0------------- |
D| ---------------------------------------2--0------- |

e| --15------------------15--17--18--20--22---------- |
B| ------------------15------------------------------ |
G| --12--12--14--15----------------------19---------- |
D| -------------------------------------------------- |
A| -------------------------------------------------- |
D| -------------------------------------------------- |

e| ---22----20----19----18--------------------------- |
B| -------------------------------------------------- |
G| ---19----17----16----15--------------------------- |
D| -------------------------------------------------- |
A| -------------------------------------------------- |
D| -------------------------------------------------- |

e| ------------------13--15--17--20--25--25---------- |
B| --------------13---------------------------------- |
G| ------12--14----------------------22--22---------- |
D| --15---------------------------------------------- |
A| -------------------------------------------------- |
D| -------------------------------------------------- |

e| -----------------------0---1---5---10------------- |
B| -------------------3------------------------------ |
G| ---------------2---------------------------------- |
D| ---0---2---3-------------------------------------- |
A| -------------------------------------------------- |
D| -------------------------------------------------- |

e| ---5---1------------------------------------------ |
B| -----------3-------------------------------------- |
G| ---------------2---------------------------------- |
D| -------------------3---0-------------------------- |
A| ---------------------------0---------------------- |
D| -------------------------------------------------- |

e| ----------14-----14-----5------------------------- |
B| ---12-----12-----14-----5------------------------- |
G| ---12------------14-----5------------------------- |
D| -------------------------------------------------- |
A| -------------------------------------------------- |
D| -------------------------------------------------- |

e| ---12--------0--2--4--5--7--9--------------------- |
B| ---12--0--2--------------------------------------- |
G| ---11--------------------------------------------- |
D| -------------------------------------------------- |
A| -------------------------------------------------- |
D| -------------------------------------------------- |

e| ---11----------------------11--12--14--19~~~------ |
B| ---12----------11--12--14------------------------- |
G| ---11------13------------------------------------- |
D| -------16----------------------------------------- |
A| -------------------------------------------------- |
D| -------------------------------------------------- |

e| -------------------------------------------------- |
B| -------0---0---------------3-----3~~~------------- |
G| ---------------2---0-------------3~~~------------- |
D| ---3-------------------4---------4~~~------------- |
A| ---------------------------------5~~~------------- |
D| -------------------------------------------------- |

e| -------------------------------------------------- |
B| ---3---------------1------------------------------ |
G| -------4---0-------------------------------------- |
D| ---------------3---3---1-------1------------------ |
A| ---------------3-----------3---------------------- |
D| -------------------------------------------------- |

e| -------------------------------------------------- |
B| -------------------------------------------------- |
G| ------------------0--2-----------2--3------------- |
D| ---3-----------3--------------3------------------- |
A| ---------0--3-----------0--3---------------------- |
D| ------3------------------------------------------- |

e| ---------------1---3------------------------------ |
B| ---1---------------------------------------------- |
G| -----------2-------------------------------------- |
D| -------3------------------------------------------ |
A| -------------------------------------------------- |
D| -------------------------------------------------- |

e| ---5-------1---3---5---6-----9~~~~~~-------------- |
B| -------1------------------------------------------ |
G| -----------------------------9~~~~~~-------------- |
D| -------------------------------------------------- |
A| -------------------------------------------------- |
D| -------------------------------------------------- |


Hey you remember how it said Guitar 1 at the beginning? That's right, all this work and
can't even play the entire song... Don't worry, I'll be posting Guitar 2 as soon as I
it out.

.::BlackAce::.
Tap to rate this tab
# A B C D E F G H I J K L M N O P Q R S T U V W X Y Z