Song name
# A B C D E F G H I J K L M N O P Q R S T U V W X Y Z

The Black Maria - Waking Up With The Wolves tab

Ok so this song rocks and the other guy to tab this was pretty inaccurate.
This is also my first tab, it may not be perfect, but alright, any suggestions would be 
much appreciated
and i will post the corrections asap and give credit where credit is due.
Thanks!


E|----------------------------------------------------------|
B|-------------13-------------------------------------------|
G|-----13-----------13-----------13--------------15---------|
D|-10------10------------13--15------15--13--15------15--13-|       x3
A|----------------------------------------------------------|
D|----------------------------------------------------------|


E|----------------------------------------------------------|
B|-------------13-------------------------------------------|
G|-----13-----------13-----------13-------------------------|on the last time
D|-10------10------------13--15------15--13--15--12--15--13-|
A|----------------------------------------------------------|
D|----------------------------------------------------------|

Word
Tap to rate this tab
# A B C D E F G H I J K L M N O P Q R S T U V W X Y Z