The Black Pacific - Almost Rising tab

-----------------------------------------------------------------------------
			     Almost Rising - The Black Pacific
-----------------------------------------------------------------------------
Tabbed by: Ryan M.
Email: walkingXdisaster@live.com

Tuning: Drop D flat

Intro
e|--------------------------------------------------------------------------|
B|--------------------------------------------------------------------------|
G|-----------44444444-----------4444-2-44-5-44------------------------------|
D|-4444-0000-44444444-4444-0000-4444-2-44-5-44------------------------------|
A|-4444-0000-22222222-4444-0000-2222-0-22-3-22--------x2--------------------|
E|-4444-0000----------4444-0000---------------------------------------------|

e|--------------------------------------------------------------------------|
B|--------------------------------------------------------------------------|
G|-9-11-1313-1314-1311---16-11-11---131413--11------------------------------|
D|--------------------------------------------------------------------------|
A|-----------------------------------------------------x2-------------------|
E|--------------------------------------------------------------------------|

Verse
e|--------------------------------------------------------------------------|
B|--------------------------------------------------------------------------|
G|----------------------------4444-2-44-5-44--------------------------------|
D|-4-------2/4-----2-00000000-4444-2-44-5-44--------------------------------|
A|-4-------2/4-----2-00000000-2222-0-22-3-22--x2----------------------------|
E|-4-------2/4-----2-00000000-----------------------------------------------|

e|--------------------------------------------------------------------------|
B|--------------------------------------------------------------------------|
G|------------------------------------4444-2-44-5-44------------------------|
D|-4444-2-4444-2-4444-2-4444-00000000-4444-2-44-5-44------------------------|
A|-4444-2-4444-2-4444-2-4444-00000000-2222-0-22-3-22----x2------------------|
E|-4444-2-4444-2-4444-2-4444-00000000---------------------------------------|

Chorus
e|-------------------------------------------------------------------------|
B|-------------------------------------------------------------------------|
G|-77777777-99999999-------------------------------------------------------|
D|-77777777-99999999--4444-2-4444-2-4444-2-4444-2--------------------------|
A|-55555555-77777777--4444-2-4444-2-4444-2-4444-2--------------------------|
E|--------------------4444-2-4444-2-4444-2-4444-2-------x2-----------------|

e|--------------------------------------------------------------------------|
B|--------------------------------------------------------------------------|
G|-------------------4444444444444444-77777777-99999999---------------------|
D|-00000000-22222222-4444444444444444-77777777-99999999--4~~----------------|
A|-00000000-22222222-2222222222222222-55555555-77777777--4~~----------------|
E|-00000000-22222222-------------------------------------4~~----------------|


Bridge
e|--------------------------------------------------------------------------|
B|--------------------------------------------------------------------------|
G|-11-11-11-11--14-14-14--13-13-13---14-16-14-13-11-------------------------|
D|--x--x--x--x---x--x--x---x--x--x----x--x--x--x--x-------------------------|
A|--9--9--9--9--12-12-12--11-11-11---12-14-12-11--9-------------------------|
E|--------------------------------------------------------------------------|

e|--------------------------------------------------------------------------|
B|--------------------------------------------------------------------------|
G|-11-11-11-11--14-14-14--13-13-13---14-16-14-16-18-------------------------|
D|--x--x--x--x---x--x--x---x--x--x----x--x--x--x-x--------------------------|
A|--9--9--9--9--12-12-12--11-11-11---12-14-12-14-16-------------------------|
E|--------------------------------------------------------------------------|

e|--------------------------------------------------------------------------|
B|-14-14-14-14--12--------14-15-14--12--14----------------------------------|
G|--x--x--x--x--x----------x--x--x--x----x----------------------------------|
D|-11-11-11-11--9----x3---11-12-11--9---11----------------------------------|
A|--------------------------------------------------------------------------|
E|--------------------------------------------------------------------------|

e|--------------------------------------------------------------------------|
B|-14-14-14-14--12--14-14-14-14--12--17-17-17-17---19-19-19-19--------------|
G|--x--x--x--x--x----x--x--x--x---x---x--x--x--x----x--x--x--x--------------|
D|-11-11-11-11--9---11-11-11-11---9--14-14-14-14---16-16-16-16--------------|
A|--------------------------------------------------------------------------|
E|--------------------------------------------------------------------------|
Tap to rate this tab
 
# A B C D E F G H I J K L M N O P Q R S T U V W X Y Z