The Black Pacific - When Its Over tab

When It's Over
The Black Pacific
The Black Pacific

18/12/10
Kyle Dixon


Intro x4
Eb|------------------------------------------|
Bb|------------------------------------------|
Gb|-7-7-7-7-7-7-7-7--------------------------|
Db|-x-x-x-x-x-x-x-x-3-2--2-3-2--2-3-2--2-3-2-|
Ab|-5-5-5-5-5-5-5-5-3-2--2-3-2--2-3-2--2-3-2-|
Eb|-----------------1-0--0-1-0--0-1-0--0-1-0-|

Verse A x3
Eb|------------------------------------------|
Bb|------------------------------------------|
Gb|-7-7-7-7-7-7-7-7--------------------------|
Db|-x-x-x-x-x-x-x-x-3-2--2-3-2--2-3-2--2-3-2-|
Ab|-5-5-5-5-5-5-5-5-3-2--2-3-2--2-3-2--2-3-2-|
Eb|-----------------1-0--0-1-0--0-1-0--0-1-0-|

Verse B
Eb|------------------------------------------|
Bb|------------------------------------------|
Gb|-7-7-7-7-7-7-7-7--------------------------|
Db|-x-x-x-x-x-x-x-x-3-2--2-3-2--2-3-2--3-3-3-|
Ab|-5-5-5-5-5-5-5-5-3-2--2-3-2--2-3-2--3-3-3-|
Eb|-----------------1-0--0-1-0--0-1-0--1-1-1-|

Chorus x4 (on last measure, Ab5 is played once)
Eb|---------------------------------|
Bb|---------------------------------|
Gb|---------------------------------|
Db|-5-5-5-5-5-5-5-5-7-7-7-7-7-7-7-7-|
Ab|-5-5-5-5-5-5-5-5-7-7-7-7-7-7-7-7-|
Eb|-3-3-3-3-3-3-3-3-5-5-5-5-5-5-5-5-|

Intro x2
Verse A x3
Verse B
Chorus x4 (on last measure, Ab5 is played once)
Intro x4

Bridge A
Guitar 1 x3 % = pause ^ = whole step bend
Eb|-----------------------------%-|
Bb|-----------------------------%-|
Gb|-10-9--9-10-9--9-10-9--9-10--%-|
Db|-10-9--9-10-9--9-10-9--9-10--%-|
Ab|-8--7--7-8--7--7-8--7--7-8---%-|
Eb|-----------------------------%-|

Guitar 2 x3
Eb|-------------------------12--%-|
Bb|-15^-----15^-----15^---------%-|
Gb|-----------------------------%-|
Db|-----------------------------%-|
Ab|-----------------------------%-|
Eb|-----------------------------%-|

Bridge B
Guitar 1
Eb|-------------------------------------------------|
Bb|-------------------------------------------------|
Gb|-10-10-10-10-10-10-10-10-10-10-10-10-10-10-10-10-|
Db|-10-10-10-10-10-10-10-10-10-10-10-10-10-10-10-10-|
Ab|-8--8--8--8--8--8--8--8--8--8--8--8--8--8--8--8--|
Eb|-------------------------------------------------|

Eb|----------------------------------------------|
Bb|----------------------------------------------|
Gb|-10-10-10-10-10-10-10-10-10-10-10-10-10-------|
Db|-10-10-10-10-10-10-10-10-10-10-10-10-10-3-3-3-|
Ab|-8--8--8--8--8--8--8--8--8--8--8--8--8--3-3-3-|
Eb|----------------------------------------1-1-1-|

Guitar 2
Eb|-------------------------------------------------|
Bb|-------------------------------------------------|
Gb|-10-10-10-10-10-10-10-10-14-14-14-14-14-14-14-14-|
Db|-x--x--x--x--x--x--x--x--x--x--x--x--x--x--x--x--|
Ab|-8--8--8--8--8--8--8--8--12-12-12-12-12-12-12-12-|
Eb|-------------------------------------------------|

Eb|----------------------------------------------|
Bb|----------------------------------------------|
Gb|-17-17-17-17-17-17-17-17-17-17-17-17-17-------|
DB|-x--x--x--x--x--x--x--x--x--x--x--x--x--3-3-3-|
Ab|-15-15-15-15-15-15-15-15-15-15-15-15-15-3-3-3-|
Eb|----------------------------------------1-1-1-|

Chorus x4 (on last measure, Ab5 is played once)
Intro x4

Outro
Eb|-------|
Bb|-------|
Gb|-------|
Db|-3-3-3-|
Ab|-3-3-3-|
Eb|-1-1-1-|
Tap to rate this tab
 
# A B C D E F G H I J K L M N O P Q R S T U V W X Y Z