Song name
# A B C D E F G H I J K L M N O P Q R S T U V W X Y Z

The Black Pacific - Time Is Not The Reason tab

song: Time is no the Reason
band: The Black Pacific
Album: The Black Pacific

* = palm mute

-intro/verse-
e|---------------------------------------------------------------------------|
B|---------------------------------------------------------------------------|
G|---------------666666-9-8-444----------------666666-44---------------------|
D|-4-6666-4-6666-666666-9-8-444--4-6666-4-6666-666666-44-44------------------|
A|-4-6666-4-6666-444444-7-6-222--4-6666-4-6666-444444-22-44------------------|
E|-2-4444-2-4444-----------------2-4444-2-4444-----------22------------------|

-bridge-
e|---------------------------------------------------------------------------|
B|---------------------------------------------------------------------------|
G|---------------------------------------------------------------------------|
D|-22-22-22--44-44-44--22-22-22--2-------------------------------------------|
A|-22-22-22--44-44-44--22-22-22--2-------------------------------------------|
E|-00-00-00--22-22-22--00-00-00--4-------------------------------------------|
      **        **        **
-chorus-
e|---------------------------------------------------------------------------|
B|---------------------------------------------------------------------------|
G|---------------------------------------------------------------------------|
D|-66666666--99999999-22222222-44444444--------------------------------------|
A|-66666666--99999999-22222222-44444444--------------------------------------|
E|-44444444--77777777-00000000-22222222--------------------------------------|

The solo is hard to hear but if you play anything in G# pentatonic minor it will sound good.
Thanks for reading, feel free to leave any comments.
Tap to rate this tab
 
# A B C D E F G H I J K L M N O P Q R S T U V W X Y Z