Song name
# A B C D E F G H I J K L M N O P Q R S T U V W X Y Z

The Black Pacific - Defamer tab

song: Defamer
Artist: The Black Pacific
Album: The Black Pacific


-Intro-
e|----------------------|----------------|
B|----------------------|----------------|
G|-------------3333-----|--------3333----|
D|-333-1-33-11-3333-11--|-333131-3333-1--|
A|-333-1-33-11-1111-11--|-333131-1111-1--|
D|-333-1-33-11------11--|-333131------1--|
   *** * ** ** **** **

-verse-                                                               
e|---------------------------------------------|
B|---------------------------------------------|
G|----------------3---------------3------------|
D|-333333333333-1-3--333333333333-3-1-33333333-|
A|-333333333333-1-1--333333333333-1-1-33333333-|
D|-333333333333-1----333333333333---1-33333333-|
   ************      ************     ********
                      /               \
e|--------------------|--[section x2]-|
B|--------------------|---------------|
G|--------------------|--------3333---| [whole verse x2]
D|-88888888-66666666--|-333131-3333-1-| 
A|-88888888-66666666--|-333131-1111-1-|
D|-88888888-66666666--|-333131------1-|
                      \               /  

-chorus-                                        
e|------------------------------------|------------------------|
B|------------------------------------|------------------------|
G|-55555555555555533333333------------|-5555555555533333333333-|
D|-5555555555555553333333333333333-x3-|-5555555555533333333333-|
A|-3333333333333331111111133333333----|-3333333333311111111111-|
D|------------------------33333333----|------------------------|


e|---------------|
B|---------------|
G|--------3333---|
D|-333131-3333-1-|
A|-333131-1111-1-|
D|-333131------1-|


-bridge-
e|----------------|
B|----------------|
G|--------3333----|    [x4 palm muted]
D|-333131-3333-1--|         then
A|-333131-1111-1--|  [x2 non palm muted]
D|-333131------1--|
   ****** **** *

e|----------------------------------|
B|----------------------------------|
G|-55555555555555533333333\8888-88--|[x3]
D|-55555555555555533333333\8888-88--|
A|-33333333333333311111111\6666-66--|
D|----------------------------------|


e|-------------------------|
B|-------------------------|
G|-55555555555555533333333-|
D|-55555555555555533333333-|
A|-33333333333333311111111-|
D|-------------------------|

-outro-
e|-----------------------------------|
B|-----------------------------------|
G|--------3333-----------3333--------|
D|-333131-3333-1--333131-3333-1\3----|
A|-333131-1111-1--333131-1111-1\3----|
D|-333131------1--333131------1\3----|

Tap to rate this tab
 
# A B C D E F G H I J K L M N O P Q R S T U V W X Y Z