Song name
# A B C D E F G H I J K L M N O P Q R S T U V W X Y Z

The Black Ryder - Sweet Come Down tab

-------------------------------------------------------------------------------
			     Sweet Come Down - The Black Ryder 
-------------------------------------------------------------------------------
Website: http://www.theantimachinemachine.com/
Myspace: http://www.myspace.com/theblackryder

Chords:

Verse: Em, Dm, G, Am 
Chorus: Am, G, F, Am
Outro: Em, Am, Em, Am

e|--------------------1---------1----------1---------------------------------|
B|--------------------3---------3----------3---------------------------1-----|
G|-------0------------2---------2----------2---------0-----------------2-----|
D|-----------2----0-------------------0---------0-------------0--------2-----|
A|-0-2---------------------0------------------------------0------0-----------|
E|-------------------------------------------------------------------------0-|

e|------------------------------3------------1--------------------------------------|
B|--1--------1-------1----------0------------1----------1------1--------------------|
G|--2--------2-------2----------0------------2----------2------2---------0----------|
D|--2--------2-------2----------0------------3----------2------2------2-----2-------|
A|-------0-------------------2------------3------3--0--------------0------------0---|
E|----------------0-------3---------3--1---------------------0----------------------|

e|-----------------------------------------------------------------------------|
B|--1------1-------------------------------------------------------------------|
G|--2------2-------------------------------------------------------------------|
D|--2------2-------------------------------------------------------------------|
A|--------------0--------------------------------------------------------------|
E|------0----------------------------------------------------------------------|

Tap to rate this tab
 
# A B C D E F G H I J K L M N O P Q R S T U V W X Y Z