Song name
# A B C D E F G H I J K L M N O P Q R S T U V W X Y Z

The Black Ryder - Sweet Come Down tab

-------------------------------------------------------------------------------
			                       Sweet Come down - The Black Ryder
-------------------------------------------------------------------------------
Tabbed by: Jeremy
Email: sstop1200@hotmail.com

Tuning: Standard

Intro:           Dm                        Am        
e|---------------11---11---1---------------------------|
B|---------------33---33---3---------------11---11---1-|
G|-----0---------22---22---2-----0---------22---22---2-|
D|-0h2---2-(0)-0-00---00-0-0-0h2---2-(0)---22---22---2-|
A|------------------0--------------------0---------0---|
E|--------------------------------------------0--------|
                 Dm                        Am
e|---------------11---11---1---------------------------|
B|---------------33---33---3---------------1--1---11---|
G|-----0---------22---22---2-----0---------2--2---22---|
D|-0h2---2-(0)-0-00---00-0-0-0h2---2-(0)---0h22---22---|
A|------------------0--------------------0-----------0-|
E|----------------------------------------------0------|


Fill: Add this in whenever you like before a chord. The ghost note can be played as a pull off.
e|---------------|
B|---------------|
G|-----0---------|
D|-0h2---2-(0)---|
A|---------------|
E|---------------|

          Dm
I'm on my own,
                  Am
I'm drinking for you and me
(Fill)       Dm
Singing this song
                  Am
And hearing your harmony
      G
All I want
       F            Am
Sweet lover on my side 
    G             F              Am
Oh lord, your my only friend tonight

(intro) 
                Dm
Your all that I know
                  Am
I'm thinking bout you and me
             Dm
Whether be long  
              Am
Singing this melody
      G
All i want 
      F            Am
Sweet lover on my side
    G             F            Am
Oh lord, your my only friend tonight

End Am

Tap to rate this tab
# A B C D E F G H I J K L M N O P Q R S T U V W X Y Z