The Black Seeds - Come To Me tab

------------------------------------------------
Come to me - The Black Seeds
------------------------------------------------

this is only the riff for this song, and it sounds like the only chord in the whole song 
'A'

e|-------------------------------------------------------------------|
B|-----/14-14-14-14-14--12-------------------------------------------|
G|-----/14-14-14-14-14--12--------/12-12-12-12-12-12-11--9-----------|
D|------------------------14-14---/14-14-14-14-14-14-12--10b.5-------|
A|--0----------------------------------------------------------12\---|
E|-------------------------------------------------------------------|

e|------------------------------------------------------------------|
B|------------------------------------------------------------------|
G|-----/9--9--9--9--9--9----12\9----9--9--9--9--9--9--7-6-6---------|
D|-----/11-11-11-11-11-11---14\11---11-11-11-11-11-11-9-7-7---------|
A|--0---------------------------------------------------0-0---------|
E|------------------------------------------------------------------|

Enjoy!


************************************

| /   slide up
| \   slide down
| h   hammer-on
| p   pull-off
| ~   vibrato
| +   harmonic
| x   Mute note
| b   Bend
| pb  Pre-bend
| br  Bend release
| pbr Pre-bend release
| brb Bend release bend

************************************
Tap to rate this tab
 
# A B C D E F G H I J K L M N O P Q R S T U V W X Y Z