Song name
# A B C D E F G H I J K L M N O P Q R S T U V W X Y Z

The Black Velvet Band - When Justice Came chords

Highlighted       Show chord diagrams
WHEN JUSTICE CAME
(Black velvet band)

Submitted by Pierpaolo Vezzaro
This is my own interpratation, corrections & suggestions are welcome

      Am
The travelling show, all the magic you get

And the folks next door all come to pay their respect
         G                          Em
And I'm rolling around just like a spinning top
     Am
On a zig-zag course wich will never ever stop

(...)

Chorus:
              Dm                 Am
   And I can scarcely believe my eyes
           G      Em      Am
   I can't say to my surprise
          Dm                 Am
   I can scarcely believe my eyes
             C                G     G(bass) Em  Am
   Let's not carry, let's not carry this    too far



On the chorus use softer dynamics; you can also add some cool bass runs, eg something like:

           Dm (...)   D    C  Am
-----------1------------------0----------|
-----------3------------------1----------|
-----------2------------------2----------|
-----------0----------0-------2----------|
---------------------------3--0----------|
-----------------------------------------|
And I can scarcely believe my eyes

           G   A   Em    C   Am
-----------3-----------------0----------|
-----------3-----------------1----------|
-----------0-------0---------2----------|
-----------0-------2---------2----------|
-----------2---0---2-----3---0----------|
--0--2-----3-------0--------------------|
  I can't say  to  my   surprise
Tap to rate this tab
 
# A B C D E F G H I J K L M N O P Q R S T U V W X Y Z