Song name
# A B C D E F G H I J K L M N O P Q R S T U V W X Y Z

The Blackbox Revelation - Kill For Peace tab

The Black box Revelation
Kill For Peace (And Peace Will Die)
Standard: EADGBE


INTRO:
------
e|--------------------------------------------------------------------------------|
B|--------------------------------------------------------------------------------|
G|-------7-----------9b-9-7----------------9----9-9-9-----------------------------|
D|---9-------9--9-9-----------5--5-7----------------------------------------------|
A|---9-------9--9-9-----------5--5-7----------------------------------------------|
E|---7-------7--7-7-----------3--3-5----------------------------------------------|  x2

VERSE 1: (palm muted)
-------
e|--------------------------------------------------------------------------------|
B|--------------------------------------------------------------------------------|
G|--------------------------------------------------------------------------------|
D|---9-9-9-9-9-9-9-9-9-9-9-9-9-9-9-9--5-5-5-5-5-5-5-5--7-7-7-7-7-7-7-7------------|             
A|---9-9-9-9-9-9-9-9-9-9-9-9-9-9-9-9--5-5-5-5-5-5-5-5--7-7-7-7-7-7-7-7------------|
E|---7-7-7-7-7-7-7-7-7-7-7-7-7-7-7-7--3-3-3-3-3-3-3-3--5-5-5-5-5-5-5-5------------|  x2

INTRO VERSE 2:
--------
e|--------------------------------------------------------------------------------|
B|--------------------------------------------------------------------------------|
G|-------7-----------9b-9-7---------------9---9-9-9-------------------------------|
D|---9-------9--9-9-----------5--5-7----------------------------------------------|
A|---9-------9--9-9-----------5--5-7----------------------------------------------|
E|---7-------7--7-7-----------3--3-5----------------------------------------------|  x2

VERSE 2: (palm muted)
-------
e|--------------------------------------------------------------------------------|
B|--------------------------------------------------------------------------------|
G|--------------------------------------------------------------------------------|
D|---9-9-9-9-9-9-9-9-9-9-9-9-9-9-9-9--5-5-5-5-5-5-5-5--7-7-7-7-7-7-7-7------------|             
A|---9-9-9-9-9-9-9-9-9-9-9-9-9-9-9-9--5-5-5-5-5-5-5-5--7-7-7-7-7-7-7-7------------|
E|---7-7-7-7-7-7-7-7-7-7-7-7-7-7-7-7--3-3-3-3-3-3-3-3--5-5-5-5-5-5-5-5------------|  x2

CHORUS 1: 
-------
e|--------------------------------------------------------------------------------|
B|--------------------------------------------------------------------------------|
G|--------------------------------------------------------------------------------|
D|---9-9-9-9-9-9-9-9--2-2-2-2-2-2-2-2--5-5-5-5-5-5-5-5--7-7-7-7-7-7-7-7-----------|             
A|---9-9-9-9-9-9-9-9--2-2-2-2-2-2-2-2--5-5-5-5-5-5-5-5--7-7-7-7-7-7-7-7-----------|
E|---7-7-7-7-7-7-7-7--0-0-0-0-0-0-0-0--3-3-3-3-3-3-3-3--5-5-5-5-5-5-5-5-----------|  x2

e|--------------------------------------------------------------------------------|
B|--------------------------------------------------------------------------------|
G|--------------------------------------------------------------------------------|
D|---9----------------------------------------------------------------------------|
A|---9-----(let ring)-------------------------------------------------------------|
E|---7----------------------------------------------------------------------------|

VERSE 3: (palm muted)
-------
e|--------------------------------------------------------------------------------|
B|--------------------------------------------------------------------------------|
G|--------------------------------------------------------------------------------|
D|---9-9-9-9-9-9-9-9-9-9-9-9-9-9-9-9--5-5-5-5-5-5-5-5--7-7-7-7-7-7-7-7------------|             
A|---9-9-9-9-9-9-9-9-9-9-9-9-9-9-9-9--5-5-5-5-5-5-5-5--7-7-7-7-7-7-7-7------------|
E|---7-7-7-7-7-7-7-7-7-7-7-7-7-7-7-7--3-3-3-3-3-3-3-3--5-5-5-5-5-5-5-5------------|  x2

CHORUS 2:
---------
e|--------------------------------------------------------------------------------|
B|--------------------------------------------------------------------------------|
G|--------------------------------------------------------------------------------|
D|---9-9-9-9-9-9-9-9--2-2-2-2-2-2-2-2--5-5-5-5-5-5-5-5--7-7-7-7-7-7-7-7-----------|             
A|---9-9-9-9-9-9-9-9--2-2-2-2-2-2-2-2--5-5-5-5-5-5-5-5--7-7-7-7-7-7-7-7-----------|
E|---7-7-7-7-7-7-7-7--0-0-0-0-0-0-0-0--3-3-3-3-3-3-3-3--5-5-5-5-5-5-5-5-----------|  x4

VERSE 4:
-------
e|--------------------------------------------------------------------------------|
B|--------------------------------------------------------------------------------|
G|--------------------------------------------------------------------------------|
D|---9-9-9-9-9-9-9-9-9-9-9-9-9-9-9-9--5-5-5-5-5-5-5-5--7-7-7-7-7-7-7-7------------|             
A|---9-9-9-9-9-9-9-9-9-9-9-9-9-9-9-9--5-5-5-5-5-5-5-5--7-7-7-7-7-7-7-7------------|
E|---7-7-7-7-7-7-7-7-7-7-7-7-7-7-7-7--3-3-3-3-3-3-3-3--5-5-5-5-5-5-5-5------------|  x2

OUTRO:
------
e|--------------------------------------------------------------------------------|
B|--------------------------------------------------------------------------------|
G|--------------------------------------------------------------------------------|
D|---9-9-9-9-9-9-9-9-9-9-9-9-9-9-9-9--5-5-5-5-5-5-5-5--7-7-7-7-7-7-7-7------------|             
A|---9-9-9-9-9-9-9-9-9-9-9-9-9-9-9-9--5-5-5-5-5-5-5-5--7-7-7-7-7-7-7-7------------|
E|---7-7-7-7-7-7-7-7-7-7-7-7-7-7-7-7--3-3-3-3-3-3-3-3--5-5-5-5-5-5-5-5------------|  x8

e|--------------------------------------------------------------------------------|
B|--------------------------------------------------------------------------------|
G|--------------------------------------------------------------------------------|
D|---9----------------------------------------------------------------------------|
A|---9---(let ring)---------------------------------------------------------------|
E|---7----------------------------------------------------------------------------|




Great song : http://www.youtube.com/watch?v=1enimn3YS-c

thanks to : clyde_himself
Tap to rate this tab
# A B C D E F G H I J K L M N O P Q R S T U V W X Y Z