Song name
# A B C D E F G H I J K L M N O P Q R S T U V W X Y Z

The Blackbox Revelation - Set Your Head On Fire tab

Ok here goes, the Blackbox Revelation is the best band Belgium has to offer nowadays. 
written in an open tuning and the lead guitarist uses a capo.

You can use Open D tuning, wich the real guitarist uses, ( D A D F# A D ) and a Capo on 
fourth fret. Or an Open E tuning ( E B E G# B E ) and a Capo on the second fret.


Relative to Capo.

INTRO

F#---------------------------------------------------------|
C#------------------0-3p0-0-2p0-0-0---0-3p0-0-2p0-0-0------|
A#------------------0-0---0-0---0-0---0-0---0-0---0-0------|
F#------------------0-0---0-0---0-4---0-0---0-0---0-4------|
C#--0---5---3---0------------------------------------------|
F#--0---5---3---0------------------------------------------|

F#-------------------------------------------------------------|
C#------------------0-3p0-0-2p0-0-0---5-5-5-5-5/8--------------|
A#------------------0-0---0-0---0-0---0-0-0-0-0-0--------------|
F#------------------0-0---0-0---0-0---0-0-0-0-0-0--------------|
C#--0---5---3---0----------------------------------------------|
F#--0---5---3---0----------------------------------------------|


F#---------------------------------------------------------|
C#------------------0-3p0-0-2p0-0-0---0-3p0-0-2p0-0-0------|
A#------------------0-0---0-0---0-0---0-0---0-0---0-0------|
F#------------------0-0---0-0---0-4---0-0---0-0---0-4------|
C#--0---5---3---0------------------------------------------|
F#--0---5---3---0------------------------------------------|

F#----------------------------------------------------------------|
C#------------------0-3p0-0-2p0-0-0---5-5-5-5-5-5/-8--8--8--8--8--|
A#------------------0-0---0-0---0-0---0-0-0-0-0-0--0--0--0--0--0--|
F#------------------0-0---0-0---0-0---0-0-0-0-0-0--0--0--0--0--0--|
C#--0---5---3---0-------------------------------------------------|
F#--0---5---3---0-------------------------------------------------|

F#------------------------------------------------------------------------|
C#------------------------------------------------------------------------|
A#------------------------------------------------------------------------|
F#-0-0-4-0-4-0--0-4-0-4-0--3-3--0-0-4-0-4-0--4-4-4-4-4-4/-7--7--7--7--7---|
C#-0-0-3-0-2-0--0-3-0-2-0--3-3--0-0-3-0-2-0--5-5-5-5-5-5/-8--8--8--8--8---|
F#-0-0-0-0-0-0--0-0-0-0-0--3-3--0-0-0-0-0-0--0-0-0-0-0-0--0--0--0--0--0---|

F#-------------------------------------------0-0-0-0-0--0--0--0--0--0-----|
C#-------------------------------------------5-5-5-0-0--8--8--8--8--8-----|
A#-------------------------------------------0-0-0-0-0--0--0--0--0--0-----|
F#-0-0-4-0-4-0--0-4-0-4-0--3-3--0-0-4-0-4-0--4-4-4-0-0--7--7--7--7--7-----|
C#-0-0-3-0-2-0--0-3-0-2-0--3-3--0-0-3-0-2-0--5-5-5-0-0--8--8--8--8--8-----|
F#-0-0-0-0-0-0--0-0-0-0-0--3-3--0-0-0-0-0-0--0-0-0-0-0--0--0--0--0--0-----|


VERSE

Secret place, secret time, a secret place to hide
F#------------------------------------------------------------------------|
C#------------------------------------------------------------------------|
A#------------------------------------------------------------------------|
F#-0-0-4-0-4-0--0-4-0-4-0--3-3--0-0-4-0-4-0--4-4-4-4-4-4/-7--7--7--7--7---|
C#-0-0-3-0-2-0--0-3-0-2-0--3-3--0-0-3-0-2-0--5-5-5-5-5-5/-8--8--8--8--8---|
F#-0-0-0-0-0-0--0-0-0-0-0--3-3--0-0-0-0-0-0--0-0-0-0-0-0--0--0--0--0--0---|


Be wanted, dead or alive, no matter how
F#-------------------------------------------0-0-0-0-0--0--0--0--0--0-----|
C#-------------------------------------------5-5-5-0-0--8--8--8--8--8-----|
A#-------------------------------------------0-0-0-0-0--0--0--0--0--0-----|
F#-0-0-4-0-4-0--0-4-0-4-0--3-3--0-0-4-0-4-0--4-4-4-0-0--7--7--7--7--7-----|
C#-0-0-3-0-2-0--0-3-0-2-0--3-3--0-0-3-0-2-0--5-5-5-0-0--8--8--8--8--8-----|
F#-0-0-0-0-0-0--0-0-0-0-0--3-3--0-0-0-0-0-0--0-0-0-0-0--0--0--0--0--0-----|

BRIDGE

Didn't have the time to hold your fire, didn't have the time to scream
F#----------------------------------------------------|
C#----------------------------------------------------|
A#----------------------------------------------------|
F#--3h5-5-5-5-5-5-5-5-5-5-5-3h5-5-5-5-5-5-5-5-5-5-5-5-|
C#--3h5-5-5-5-5-5-5-5-5-5-5-3h5-5-5-5-5-5-5-5-5-5-5-5-|
F#--3h5-5-5-5-5-5-5-5-5-5-5-3h5-5-5-5-5-5-5-5-5-5-5-5-|
P.M...................................................

F#---0-0-0-0-0-0-0-0-0-0-0--3-3--0-0-0-0-0-0------------------------------|
C#---0-0-3-0-2-0-0-3-0-2-0--3-3--0-0-3-0-2-0--5-5-5-5-5-5/-8--8--8--8--8--|
A#---0-0-0-0-0-0-0-0-0-0-0--3-3--0-0-0-0-0-0--0-0-0-0-0-0--0--0--0--0--0--|
F#---0-0-0-0-0-0-0-0-0-0-0--3-3--0-0-0-0-0-0--0-0-0-0-0-0--0--0--0--0--0--|
C#---0-0-0-0-0-0-0-0-0-0-0--3-3--0-0-0-0-0-0------------------------------|
F#---0-0-0-0-0-0-0-0-0-0-0--3-3--0-0-0-0-0-0------------------------------|

Only had the time to be a liar, only had the ti-i-i-ime to steal
F#----------------------------------------------------|
C#----------------------------------------------------|
A#----------------------------------------------------|
F#--3h5-5-5-5-5-5-5-5-5-5-5-3h5-5-5-5-5-5--5--5--5----|
C#--3h5-5-5-5-5-5-5-5-5-5-5-3h5-5-5-5-5-5--5--5--5----|
F#--3h5-5-5-5-5-5-5-5-5-5-5-3h5-5-5-5-5-5--5--5--5----|
P.M.....................................

F#---0-0-0-0-0-0-0-0-0-0-0--3-3--0-0-0-0-0-0------------------------------|
C#---0-0-3-0-2-0-0-3-0-2-0--3-3--0-0-3-0-2-0--5-5-5-5-5-5/-8--8--8--8--8--|
A#---0-0-0-0-0-0-0-0-0-0-0--3-3--0-0-0-0-0-0--0-0-0-0-0-0--0--0--0--0--0--|
F#---0-0-0-0-0-0-0-0-0-0-0--3-3--0-0-0-0-0-0--4-4-4-4-4-4--7--7--7--7--7--|
C#---0-0-0-0-0-0-0-0-0-0-0--3-3--0-0-0-0-0-0--5-5-5-5-5-5--8--8--8--8--8--|
F#---0-0-0-0-0-0-0-0-0-0-0--3-3--0-0-0-0-0-0------------------------------|


CHORUS

Set your head on fire in the all black night
Set your head on fire in the all black night
Set your head on fire in the morning light
Set your head on fire in the all black night


First once with this
F#---------------------------------------------------------------------------|
C#---------------------------------------------------------------------------|
A#---------------------------------------------------------------------------|
F#---------------------------------------------------------------------------|
C#--3-3-3---0--0-0--0-0--0-0--0-0--0-0-0-3-3-3--0--0-0--0-0--0-0--0-0--0-0-0-|
F#--3-3-3---0--0-0--0-0--0-0--0-0--0-0-0-3-3-3--0--0-0--0-0--0-0--0-0--0-0-0-|

Then once with this
F#--5-5-5-5-3-3-3-0-0---0-0---0-0--5-5-5-5-3-3-3-3-3-0-0-0--3-3-0-0-----|
C#--5-5-5-5-3-3-3-0-3p0-0-2p0-0-0--5-5-5-5-3-3-3-3-3-0-0-0--3-3-0-0-----|
A#--5-5-5-3-3-3-3-0-0---0-0---0-0--5-5-5-5-3-3-3-3-3-0-0-0--3-3-0-0-----| x2
F#--5-5-5-3-3-3-3-0-0---0-0---0-0--5-5-5-5-3-3-3-3-3-0-0-0--3-3-0-0-----|
C#--5-5-5-3-3-3-3-0-0---0-0---0-0--5-5-5-5-3-3-3-3-3-0-0-0--3-3-0-0-----|
F#--5-5-5-3-3-3-3-0-0---0-0---0-0--5-5-5-5-3-3-3-3-3-0-0-0--3-3-0-0-----|


VERSE

Secret place, secret time, a secret place to hide
F#------------------------------------------------------------------------|
C#------------------------------------------------------------------------|
A#------------------------------------------------------------------------|
F#-0-0-4-0-4-0--0-4-0-4-0--3-3--0-0-4-0-4-0--4-4-4-4-4-4/-7--7--7--7--7---|
C#-0-0-3-0-2-0--0-3-0-2-0--3-3--0-0-3-0-2-0--5-5-5-5-5-5/-8--8--8--8--8---|
F#-0-0-0-0-0-0--0-0-0-0-0--3-3--0-0-0-0-0-0--0-0-0-0-0-0--0--0--0--0--0---|


Be wanted, dead or alive, No matter how
F#-------------------------------------------0-0-0-0-0--0--0--0--0--0-----|
C#-------------------------------------------5-5-5-0-0--8--8--8--8--8-----|
A#-------------------------------------------0-0-0-0-0--0--0--0--0--0-----|
F#-0-0-4-0-4-0--0-4-0-4-0--3-3--0-0-4-0-4-0--4-4-4-0-0--7--7--7--7--7-----|
C#-0-0-3-0-2-0--0-3-0-2-0--3-3--0-0-3-0-2-0--5-5-5-0-0--8--8--8--8--8-----|
F#-0-0-0-0-0-0--0-0-0-0-0--3-3--0-0-0-0-0-0--0-0-0-0-0--0--0--0--0--0-----|


BRIDGE

Didn't have the time to be tired, didn't have the time to sleep
F#----------------------------------------------------|
C#----------------------------------------------------|
A#----------------------------------------------------|
F#--3h5-5-5-5-5-5-5-5-5-5-5-3h5-5-5-5-5-5-5-5-5-5-5-5-|
C#--3h5-5-5-5-5-5-5-5-5-5-5-3h5-5-5-5-5-5-5-5-5-5-5-5-|
F#--3h5-5-5-5-5-5-5-5-5-5-5-3h5-5-5-5-5-5-5-5-5-5-5-5-|
P.M...................................................

F#---0-0-0-0-0-0-0-0-0-0-0--3-3--0-0-0-0-0-0------------------------------|
C#---0-0-3-0-2-0-0-3-0-2-0--3-3--0-0-3-0-2-0--5-5-5-5-5-5/-8--8--8--8--8--|
A#---0-0-0-0-0-0-0-0-0-0-0--3-3--0-0-0-0-0-0--0-0-0-0-0-0--0--0--0--0--0--|
F#---0-0-0-0-0-0-0-0-0-0-0--3-3--0-0-0-0-0-0--0-0-0-0-0-0--0--0--0--0--0--|
C#---0-0-0-0-0-0-0-0-0-0-0--3-3--0-0-0-0-0-0------------------------------|
F#---0-0-0-0-0-0-0-0-0-0-0--3-3--0-0-0-0-0-0------------------------------|

Only had the time to be a liar, only had the ti-i-i-ime to steal
F#----------------------------------------------------|
C#----------------------------------------------------|
A#----------------------------------------------------|
F#--3h5-5-5-5-5-5-5-5-5-5-5-3h5-5-5-5-5-5--5--5--5----|
C#--3h5-5-5-5-5-5-5-5-5-5-5-3h5-5-5-5-5-5--5--5--5----|
F#--3h5-5-5-5-5-5-5-5-5-5-5-3h5-5-5-5-5-5--5--5--5----|
P.M.....................................

F#---0-0-0-0-0-0-0-0-0-0-0--3-3--0-0-0-0-0-0------------------------------|
C#---0-0-3-0-2-0-0-3-0-2-0--3-3--0-0-3-0-2-0--5-5-5-5-5-5/-8--8--8--8--8--|
A#---0-0-0-0-0-0-0-0-0-0-0--3-3--0-0-0-0-0-0--0-0-0-0-0-0--0--0--0--0--0--|
F#---0-0-0-0-0-0-0-0-0-0-0--3-3--0-0-0-0-0-0--4-4-4-4-4-4--7--7--7--7--7--|
C#---0-0-0-0-0-0-0-0-0-0-0--3-3--0-0-0-0-0-0--5-5-5-5-5-5--8--8--8--8--8--|
F#---0-0-0-0-0-0-0-0-0-0-0--3-3--0-0-0-0-0-0------------------------------|

CHORUS

Set your head on fire in the all black night
Set your head on fire in the all black night
Set your head on fire in the morning light
Set your head on fire in the all black night


First once with this
F#---------------------------------------------------------------------------|
C#---------------------------------------------------------------------------|
A#---------------------------------------------------------------------------|
F#---------------------------------------------------------------------------|
C#--3-3-3---0--0-0--0-0--0-0--0-0--0-0-0-3-3-3--0--0-0--0-0--0-0--0-0--0-0-0-|
F#--3-3-3---0--0-0--0-0--0-0--0-0--0-0-0-3-3-3--0--0-0--0-0--0-0--0-0--0-0-0-|


Then once with this
F#--5-5-5-5-3-3-3-0-0---0-0---0-0--5-5-5-5-3-3-3-3-3-0-0-0--3-3-0-0-----|
C#--5-5-5-5-3-3-3-0-3p0-0-2p0-0-0--5-5-5-5-3-3-3-3-3-0-0-0--3-3-0-0-----|
A#--5-5-5-3-3-3-3-0-0---0-0---0-0--5-5-5-5-3-3-3-3-3-0-0-0--3-3-0-0-----| x2
F#--5-5-5-3-3-3-3-0-0---0-0---0-0--5-5-5-5-3-3-3-3-3-0-0-0--3-3-0-0-----|
C#--5-5-5-3-3-3-3-0-0---0-0---0-0--5-5-5-5-3-3-3-3-3-0-0-0--3-3-0-0-----|
F#--5-5-5-3-3-3-3-0-0---0-0---0-0--5-5-5-5-3-3-3-3-3-0-0-0--3-3-0-0-----|

OUTRO


F#---------------------------------------------------------|
C#------------------0-3p0-0-2p0-0-0---0-3p0-0-2p0-0-0------|
A#------------------0-0---0-0---0-0---0-0---0-0---0-0------|
F#------------------0-0---0-0---0-4---0-0---0-0---0-4------|
C#--0---5---3---0------------------------------------------|
F#--0---5---3---0------------------------------------------|

F#-------------------------------------------------------------|
C#------------------0-3p0-0-2p0-0-0---5-5-5-5-5/8--------------|
A#------------------0-0---0-0---0-0---0-0-0-0-0-0--------------|
F#------------------0-0---0-0---0-0---0-0-0-0-0-0--------------|
C#--0---5---3---0----------------------------------------------|
F#--0---5---3---0----------------------------------------------|


F#---------------------------------------------------------|
C#------------------0-3p0-0-2p0-0-0---0-3p0-0-2p0-0-0------|
A#------------------0-0---0-0---0-0---0-0---0-0---0-0------|
F#------------------0-0---0-0---0-4---0-0---0-0---0-4------|
C#--0---5---3---0------------------------------------------|
F#--0---5---3---0------------------------------------------|

F#----------------------------------------------------------------|
C#------------------0-3p0-0-2p0-0-0---5-5-5-5-5-5/-8--8--8--8--8--|
A#------------------0-0---0-0---0-0---0-0-0-0-0-0--0--0--0--0--0--|
F#------------------0-0---0-0---0-0---0-0-0-0-0-0--0--0--0--0--0--|
C#--0---5---3---0-------------------------------------------------|
F#--0---5---3---0-------------------------------------------------|

For this part he uses a bottleneck.

F#-/12-12-12-12-12-/10-10-10-10-10-/12-12-12-12-12----|
C#-/12-12-12-12-12-/10-10-10-10-10-/12-12-12-12-12----|
A#-/12-12-12-12-12-/10-10-10-10-10-/12-12-12-12-12----|
F#-/12-12-12-12-12-/10-10-10-10-10-/12-12-12-12-12----|
C#-/12-12-12-12-12-/10-10-10-10-10-/12-12-12-12-12----|
F#-/12-12-12-12-12-/10-10-10-10-10-/12-12-12-12-12----|

If you want you can slide your bottleneck up to the pickups of your guitar and rake 
to get the real cool effect he gets.
Repeat until you're tired and gradually increase tempo.
Then end with this.

F#--0---5---3---0----|
C#--0---5---3---0----|
A#--0---5---3---0----|
F#--0---5---3---0----|
C#--0---5---3---0----|
F#--0---5---3---0----|

Have fun!
Tap to rate this tab
 
# A B C D E F G H I J K L M N O P Q R S T U V W X Y Z