Song name
# A B C D E F G H I J K L M N O P Q R S T U V W X Y Z

The Blackout - Prepare For A Wound tab

This is just a quick tab of the intro, I'm pretty sure it's right and I'll finish it off 
some stage... the tuning is C# G# C# F# A# D#

|-------------------|--------------------|-------------------|--------------------|
|-------------------|--------------------|-------------------|--------------------|
|--7----------------|--12----------------|--7----------------|--10----------------|
|--5----------------|--10----------------|--5----------------|---8----------------|
|--5----------------|--10----------------|--5----------------|---8----------------|
|--5----------------|--10----------------|--5----------------|---8----------------|

|----------------|----------------|-------------||--------------|
|----------------|----------------|-------------||--------------|
|----------------|----------------|-------------||--------------|
|--12---12---12--|--10---10---10--|--5---5---5--||--------------|
|--12---12---12--|--10---10---10--|--5---5---5--||--8-----10----|
|--12---12---12--|--10---10---10--|--5---5---5--||--8(x8)-10(x8)|
                                                    .      .
|-----------------------------|----------------------------|
|-----------------------------|----------------------------|
|-----------------------------|----------------------------|
|-----------------------------|----------------------------|
|--------5-------5----3-----5-|--------5-------5----3------|
|--0--3-----0-3-----7---5-3---|--0--3-----0-3-----7---5-3--|(x8)
Tap to rate this tab
# A B C D E F G H I J K L M N O P Q R S T U V W X Y Z