Song name
# A B C D E F G H I J K L M N O P Q R S T U V W X Y Z

The Blackout - Spread Legs Not Lies tab

Song: Spread Legs Not Lies
Artist: The Blackout

Drop D tuning

Just kinda stumbled across this whilst messing around, dont really know all the parts to 
song.


Intro
e---------------------|
b---------------------|
d---------------------|
d--2--0-5--0-2-0------|
a--2--0-5--0-2-0------|
d--2--0-5--0-2-0------|

Verse
e------------------------------------------------|
b------------------------------------------------|
d--------------------------------9-7-5-----------|
d------------------------------------------------|
a--0--2-22-00-2-2--22--0-2-22-0--7-5-3-----------|
d--0--2-22-00-2-2--22--0-2-22-0------------------|

Halfway through verse Gtr 2
e-------------------------------------------------------------------|
b--13-1313131313-13/15-1515151515--13-1313131313-13/15-1515151515---|
d-------------------------------------------------------------------|
d-------------------------------------------------------------------|
a-------------------------------------------------------------------|
d-------------------------------------------------------------------|


Well i think the main riff is accurate but the rest is kinda crappy i know. anyway try 
make the best of it :)
Tap to rate this tab
# A B C D E F G H I J K L M N O P Q R S T U V W X Y Z