Song name
# A B C D E F G H I J K L M N O P Q R S T U V W X Y Z

The Blackout - She Is Macho tab

Yeah, i'll tab as much as i can but the song is a bit difficult, I know its not perfect 
its pretty much right and sounds right when you play it.

D#]-----------------]------------------------------|
A#]-----------------]------------------------------|
F#]-----------------]------------------------------|
C#]-2-2-4----2-2-4--]--44-22---------44-22---------| x4
G#]-2-2-4----2-2-4--]--44-22-422722--44-22-422722--|
C#]-2-2-4----2-2-4--]--44-22-422722--44-22-422722--|

The Rythm is quite hard but once u get it its easy!

D#]--------------------------------------------------|
A#]--------------------------------------------------|
F#]---------------------------------------77777777---|
C#]-4-44-4-5-4--4-44-4-4-5-4-4-44-4-4-5-4-77777777---| x2
G#]-4-44-4-5-4--4-44-4-4-5-4-4-44-4-4-5-4-55555555---|
C#]-4-44-4-5-4--4-44-4-4-5-4-4-44-4-4-5-4------------|


I'm not sure of the chorus. as soon as i know i'll tab it-sorry.

A#]--------------------[----------------------------------|
D#]--------------------[----------------------------------|
F#]--------------------[----------------------------------|
C#]-4---------0--------[----------------------------------|
G#]-4---------0--------[-4-4-44----4-4-4--4-4-44----4-4-4-|
C#]-4---------0--------[-4-4-44----4-4-4--4-4-44----4-4-4-|
                         * * **    * * *  * * **    * * *

A#]------------------------------------|
D#]------------------------------------|
F#]------------------------------------|
C#]------------------------------------|
G#]--0-0-00----0-0-0--0-0-00----0-0-0--|
C#]--0-0-00----0-0-0--0-0-00----0-0-0--|
     * * **    * * *  * * **    * * *


Thats Pretty much it. Sorry its not perfect!


key: *=P.M
Tap to rate this tab
# A B C D E F G H I J K L M N O P Q R S T U V W X Y Z