Guitaretab - guitar tabs
Song name
# A B C D E F G H I J K L M N O P Q R S T U V W X Y Z

The Blackout - Save Our Selves The Warning tab

-------------------------------------------------------------------------------
			     Save Ourselves The Warning-The Blackout
-------------------------------------------------------------------------------
Tabbed by:brokenunder
Email:tears--dont--fall@hotmail.co.uk

Tuning: Drop D

This song is the new single off the new album and its a tune. 
Theres not really any lead guitar i can hear which makes it very easy to play
have fun :)
rate and comment :)

Intro/Chorus
e|---------------------------------------------------------------------------|
B|---------------------------------------------------------------------------|
G|---------------------------------------------------------------------------|
D|-88888888-1111111111111111-66666666-4444-1111------------------------------|
A|-88888888-1111111111111111-66666666-4444-1111------------------------------|
E|-88888888-1111111111111111-66666666-4444-1111------------------------------|
                 ^11's                       ^1's
e|---------------------------------------------------------------------------|
B|---------------------------------------------------------------------------|
G|---------------------------------------------------------------------------|
D|-88888888-1111111111111111-66666666-4444--1--------------------------------|
A|-88888888-1111111111111111-66666666-4444--1--------------------------------|
E|-88888888-1111111111111111-66666666-4444--1--------------------------------|

Verse
e|---------------------------------------------------------------------------|
B|---------------------------------------------------------------------------|
G|---------------------------------------------------------------------------|
D|-888888888888-666666666666-888888888888-666666-1~--------------------------|
A|-888888888888-666666666666-888888888888-666666-1~--------------------------|
E|-888888888888-666666666666-888888888888-666666-1~--------------------------|
   PM------------------------------------------|
[ Tab from: http://www.guitaretab.com/t/the-blackout/189647.html ]
Lead
e|---------------------------------------------------------------------------|
B|---------------9-----------------------------------------------------------|
G|---88888888-10-------------------------------------------------------------|
D|---------------------------------------------------------------------------|
A|---------------------------------------------------------------------------|
E|---------------------------------------------------------------------------|

from what i can hear the lead guitar just does muting 
(with the fret hand and strumming with the picking hand) through the first half of the verse
the leads are really quiet so i cant be sure that its right


Chorus


Post-Chorus
e|---------------------------------------------------------------------------|
B|---------------------------------------------------------------------------|
G|---------------------------------------------------------------------------|
D|----------------------------------11111------------------------------------|
A|----------------------------------11111------------------------------------|
E|--8868686868686-11--8868686868686-11111------------------------------------|
                                     ^ 11's not 1's

Verse

Chorus

Bridge
e|---------------------------------------------------------------------------|
B|---------------------------------------------------------------------------|
G|---------------------------------------------------------------------------|
D|--1-1---1-1---8\--------------------------------------1111-----------------|
A|--1-1---1-1---8\--------------------------------------1111-----------------|
E|--1-1---1-1---8\-8868686868686-11--X5 8868686868686---1111-----------------|

e|---------------------------------------------------------------------------|
B|---------------------------------------------------------------------------|
G|---------------------------------------------------------------------------|
D|---------------------------------------------------------------------------|
A|---------------------------------------------------------------------------|
E|--8868686868686-11 X4------------------------------------------------------|

Chorus


| /  slide up
| \  slide down
| h  hammer-on
| p  pull-off
| ~  vibrato
| +  harmonic
| x  Mute note
===============================================================================
Related for Save Our Selves The Warning tab
Advertisement will be closed in 10 seconds