Song name
# A B C D E F G H I J K L M N O P Q R S T U V W X Y Z

The Blackout - I Dont Care This Is Why We Cant Have Nice Things tab

     The Blackout - I Don't Care (This Is Why We Can't Have Nice Things)


Tuning: standard

Realised there wasnt a tab up so i did one by ear. this is only my second tab so if my 
is really bad someone do another! :)

awesome tune by ANOTHER awesome welsh band.


Intro\Chorus
Listen to the song for the rhythm http://www.youtube.com/watch?v=uIN2Uvv75js

e|--------------------------------------------------------------------------|
B|--------------------------------------------------------------------------|
G|-8----5-------------------------------------------------------------------|
D|-8----5-------------------------------------------------------------------|
A|-6----3-------------------------------------------------------------------|
E|--------------------------------------------------------------------------|

Verse
again listen to rhythm of the song
e|--------------------------------------------------------------------------|
B|--------------------------------------------------------------------------|
G|--8----5------------------------------------------------------------------|
D|--8----5------------------------------------------------------------------|
A|--6----3------------------------------------------------------------------|
E|--------------------------------------------------------------------------|

pre chorus you can strum these if you want

e|----------------------------------------------------------------------|
B|----------------------------------------------------------------------|
G|--8-7-8-7-3-3-5-5-7---------------------------------------------------|
D|--8-7-8-7-3-3-5-5-7---------------------------------------------------|
A|--6-5-6-5-1-1-3-3-5---------------------------------------------------|
E|----------------------------------------------------------------------|

chorus


bridge(slows down) x2
e|----------------------------------------------------------------------|
B|----------------------------------------------------------------------|
G|-8-12--8-12-x-x-x--7-5--7-5-x-x-x-------------------------------------|
D|-8-12--8-12-x-x-x--7-5--7-5-x-x-x-------------------------------------|
A|-6-10--6-10-x-x-x--5-3--5-3-x-x-x-------------------------------------|
E|----------------------------------------------------------------------|

then another few choruses.

that's about it so until next time.
Tap to rate this tab
# A B C D E F G H I J K L M N O P Q R S T U V W X Y Z