Song name
# A B C D E F G H I J K L M N O P Q R S T U V W X Y Z

The Blackout - Silent When We Speak tab

e-----------------------------------------------------------|
B-----------------------------------------------------------|
G---------------11h13p11------------------------------------|   X3
D------------9------------11~--13-11-13-11-9----------------|
A-----------------------------------------------------------|
E-----------------------------------------------------------|


e-----------------------------------------------------------|
B-----------------------------------------------------------|
G---------------11h13p11------------------------------------|
D------------9------------11~--9(x8)11(x8)13(x8)14(x8)------|
A-----------------------------------------------------------|
E-----------------------------------------------------------|

This is what I've worked it out to be, it might be wrong if it is please contact 
me @ jackafc@msn.com.
Tap to rate this tab
# A B C D E F G H I J K L M N O P Q R S T U V W X Y Z