The Blackout - Ambition Is Critical tab

It's not exact... but it works great along to the song for me!

listen for timings...

INTRO:
(strum up and down very fast, make sure to damped other strings!)

e|-------------------------------------------|
B|--11--X16----9---X16----9--X16----8--X16---|
G|--10---------10---------8---------8--------|
D|-------------------------------------------|  X2
A|-------------------------------------------|
E|-------------------------------------------|

then another guitar comes in with:

e|----------------------|
B|--15--x14---13--x14---|
G|--15--------13--------|  X2
D|--13--------11--------|
A|----------------------|
E|----------------------|


VERSE:

e|-------------------------|
B|-------------------------|
G|--15~--13~----15~--13~---|  X2
D|--15~--13~----15~--13~---|
A|--13~--11~----13~--11~---|
E|-------------------------|

BRIDGE:
same as verse but with

e|------------------------------------------------------------|
B|------------------------------------------------------------|
G|------------------------------------------------------------|
D|------------------------------------------------------------|
A|--6-6-6-6--8-8-8-8--11-11-11-11--13-13-13-13----------------|
E|----------------------------------------------11-11-11-11---|

CHORUS:
(both guitars same as intro)


Guitar 1:
e|-------------------------------------------|
B|--11--X16----9---X16----9--X16----8--X16---|
G|--10---------10---------8---------8--------|
D|-------------------------------------------|  X2
A|-------------------------------------------|
E|-------------------------------------------|

Guitar 2:
e|----------------------|
B|--15--x14---13--x14---|
G|--15--------13--------|  X2
D|--13--------11--------|
A|----------------------|
E|----------------------|


SOLO RIFF (well... not solo, the bit with Sean screaming.)

e|----------------|
B|----------------|
G|----------------|  X16
D|--------6-------|
A|--8--6--4--4----|
E|--6--4-----2----|


Then it is simply the chorus and the 'solo riff' 7 times, ending on

e|-------------------|
B|-------------------|
G|-------------------|
D|--------6----------|
A|--8--6--4--4---8-8-|
E|--6--4-----2---6-6-|

I think that's right :)

Tap to rate this tab
 
# A B C D E F G H I J K L M N O P Q R S T U V W X Y Z