The Blackout - The Last Goodbye tab

Lead Intro/Chorus
Think its right not 100%

e|-------------14---------------------14--------|  
B|-12-12-11-12----12-11-12---12-11-12----12-11--|
G|----------------------------------------------|
D|----------------------------------------------|
A|----------------------------------------------|
E|----------------------------------------------|

Other instruments come in.....

e|-------------14---------------------14--------|
B|-12-12-11-12----12-11-12---12-11-12----12-11--|
G|----------------------------------------------|
D|----------------------------------------------|
A|----------------------------------------------|
E|----------------------------------------------|


e|-------------14-------------------------------|
B|-12-12-11-12----12-11-12---12-11-12-14/16\14--|
G|----------------------------------------------|
D|----------------------------------------------|
A|----------------------------------------------|
E|----------------------------------------------|

e|-------------14---------------------14--------|
B|-12-12-11-12----12-11-12---12-11-12----12-11--|
G|----------------------------------------------|
D|----------------------------------------------|
A|----------------------------------------------|
E|----------------------------------------------|


e|-------------14-------------------------------|                e|-----|
B|-12-12-11-12----12-11-12---12-11-12-14/16\14--| Then finish on B|-12~-|
G|----------------------------------------------|                G|-----|  
D|----------------------------------------------|                D|-----|
A|----------------------------------------------|                A|-----|
E|----------------------------------------------|                E|-----|

:)
Tap to rate this tab
 
# A B C D E F G H I J K L M N O P Q R S T U V W X Y Z