Song name
# A B C D E F G H I J K L M N O P Q R S T U V W X Y Z

The Blackout - Higher And Higher tab

Tabbed By: Buttwerworth95

I Learned This Song By Ear

Haven't Figuerd Out The Middle Eight 

Not Sure Of Tuneing Letters

Intro
Guitar: 1
F | ------------------------------------------------------------------- |
C | ------------------------------------------------------------------- |
G#| ------------------------------------------------------------------- |
D#| ------------------------------------------------------------------- |
A#| ------------------------------------------------------------------- |
D#| --4-4-4-2-2-2-4-4-4-2-2-2-4-4-2-2-7-7-7-0-0-0-7-7-7-0-0-0-7-7-0-0-- |

Guitar: 1 & 2
F | -------------------------------------------------------------------- |
C | -------------------------------------------------------------------- |
G#| -------------------------------------------------------------------- |
D#| --4-4-4-2-2-2-4-4-4-2-2-2-4-4-2-2--7-7-7-0-0-0-7-7-7-0-0-0-7-7-0-0-- |
A#| --4-4-4-2-2-2-4-4-4-2-2-2-4-4-2-2--7-7-7-0-0-0-7-7-7-0-0-0-7-7-0-0-- |
D#| --4-4-4-2-2-2-4-4-4-2-2-2-4-4-2-2--7-7-7-0-0-0-7-7-7-0-0-0-7-7-0-0-- |

Verse
Guitar: 1
F | ----- |
C | ----- |
G#| --4-- |
D#| --x-- |
A#| --2-- |
D#| ----- |

Pre Chorus
Guitar: 1 & 2
F | ------------------------------ |
C | ------------------------------ |
G#| ------------------------------ | 
D#| --2-2-4--2-2-4--7-7-0--7-7-0-- |
A#| --2-2-4--2-2-4--7-7-0--7-7-0-- |
D#| --2-2-4--2-2-4--7-7-0--7-7-0-- |

Guitar: 1 & 2
F | ------------------------------------------------------------------------------------------- |
C | ------------------------------------------------------------------------------------------- |
G#| ------------------------------------------------------------------------------------------- | 
D#| --2-2-4-----------------2-2-4-----------------7-7-0-----------------7-7-0------------------ |
A#| --2-2-4-(4)-(4)-(4)-(4)-2-2-4-(4)-(4)-(4)-(4)-7-7-0-(0)-(0)-(0)-(0)-7-7-0-(0)-(0)-(0)-(0)-- |
D#| --2-2-4-(4)-(4)-(4)-(4)-2-2-4-(4)-(4)-(4)-(4)-7-7-0-(0)-(0)-(0)-(0)-7-7-0-(0)-(0)-(0)-(0)-- |

Chorus
Guitar: 1 & 2
F | -------------------------------------------------------------------- |
C | -------------------------------------------------------------------- |
G#| -------------------------------------------------------------------- |
D#| --4-4-4-2-2-2-4-4-4-2-2-2-4-4-2-2--7-7-7-0-0-0-7-7-7-0-0-0-7-7-0-0-- |
A#| --4-4-4-2-2-2-4-4-4-2-2-2-4-4-2-2--7-7-7-0-0-0-7-7-7-0-0-0-7-7-0-0-- |
D#| --4-4-4-2-2-2-4-4-4-2-2-2-4-4-2-2--7-7-7-0-0-0-7-7-7-0-0-0-7-7-0-0-- |

Verse
Guitar: 1
F | ----- |
C | ----- |
G#| --4-- |
D#| --x-- |
A#| --2-- |
D#| ----- |

Pre Chorus
Guitar: 1 & 2
F | ------------------------------ |
C | ------------------------------ |
G#| ------------------------------ | 
D#| --2-2-4--2-2-4--7-7-0--7-7-0-- |
A#| --2-2-4--2-2-4--7-7-0--7-7-0-- |
D#| --2-2-4--2-2-4--7-7-0--7-7-0-- |

Guitar: 1 & 2
F | ------------------------------------------------------------------------------------------- |
C | ------------------------------------------------------------------------------------------- |
G#| ------------------------------------------------------------------------------------------- | 
D#| --2-2-4-----------------2-2-4-----------------7-7-0-----------------7-7-0------------------ |
A#| --2-2-4-(4)-(4)-(4)-(4)-2-2-4-(4)-(4)-(4)-(4)-7-7-0-(0)-(0)-(0)-(0)-7-7-0-(0)-(0)-(0)-(0)-- |
D#| --2-2-4-(4)-(4)-(4)-(4)-2-2-4-(4)-(4)-(4)-(4)-7-7-0-(0)-(0)-(0)-(0)-7-7-0-(0)-(0)-(0)-(0)-- |

Chorus
Guitar: 1 & 2
F | -------------------------------------------------------------------- |
C | -------------------------------------------------------------------- |
G#| -------------------------------------------------------------------- |
D#| --4-4-4-2-2-2-4-4-4-2-2-2-4-4-2-2--7-7-7-0-0-0-7-7-7-0-0-0-7-7-0-0-- |
A#| --4-4-4-2-2-2-4-4-4-2-2-2-4-4-2-2--7-7-7-0-0-0-7-7-7-0-0-0-7-7-0-0-- |
D#| --4-4-4-2-2-2-4-4-4-2-2-2-4-4-2-2--7-7-7-0-0-0-7-7-7-0-0-0-7-7-0-0-- |

Outro
Pre Chorus
Guitar: 1 & 2
F | ------------------------------ |
C | ------------------------------ |
G#| ------------------------------ | 
D#| --2-2-4--2-2-4--7-7-0--7-7-0-- |
A#| --2-2-4--2-2-4--7-7-0--7-7-0-- |
D#| --2-2-4--2-2-4--7-7-0--7-7-0-- |

Guitar: 1 & 2
F | ------------------------------------------------------------------------------------------- |
C | ------------------------------------------------------------------------------------------- |
G#| ------------------------------------------------------------------------------------------- | 
D#| --2-2-4-----------------2-2-4-----------------7-7-0-----------------7-7-0------------------ |
A#| --2-2-4-(4)-(4)-(4)-(4)-2-2-4-(4)-(4)-(4)-(4)-7-7-0-(0)-(0)-(0)-(0)-7-7-0-(0)-(0)-(0)-(0)-- |
D#| --2-2-4-(4)-(4)-(4)-(4)-2-2-4-(4)-(4)-(4)-(4)-7-7-0-(0)-(0)-(0)-(0)-7-7-0-(0)-(0)-(0)-(0)-- |

Tap to rate this tab
 
# A B C D E F G H I J K L M N O P Q R S T U V W X Y Z