Song name
# A B C D E F G H I J K L M N O P Q R S T U V W X Y Z

The Blackout - The Storm tab

-------------------------------------------------------------------------------
			     The Storm - The Blackout
-------------------------------------------------------------------------------
Tabbed by:riot on
Email:

Tuning: Drop D

Intro
Guitar 1

e|---------------------------------------------------------------------------|
B|-----------14----------------16----------------14--------------------------|
G|--15-15-15----15-15-15-15-15----15-15-15-15-15----15-15-13-13-13--15---13--|
D|---------------------------------------------------------------------------|
A|---------------------------------------------------------------------------|
D|---------------------------------------------------------------------------|

Guitar 2


e|---------------------------------------------------------------------------|
B|---------------------------------------------------------------------------|
G|---------------------------------------------------------------------------|
D|-4-4-4-4-4-4-4-4--1-1-1-1-1-1-1-1--8-8-8-8-8-8-8-8--6-6-6-6-6-6-6-6--------|
A|-4-4-4-4-4-4-4-4--1-1-1-1-1-1-1-1--8-8-8-8-8-8-8-8--6-6-6-6-6-6-6-6--------|
E|-4-4-4-4-4-4-4-4--1-1-1-1-1-1-1-1--8-8-8-8-8-8-8-8--6-6-6-6-6-6-6-6--------|

Let last note/chord ring out after the intro is played 2 times.



Verse 1
Guitar 1
Just drums, bass and singing for a bit then one guitar plays this twice.

e|---------------------------------------------------------------------------|
B|---------------------------------------------------------------------------|
G|--8~~~~~~~~~~~----11~~~~~~~~~~----10~~~~~~~~~~----6~~~~~~~~~~--------------|
D|---------------------------------------------------------------------------|
A|---------------------------------------------------------------------------|
E|---------------------------------------------------------------------------|



Chorus
Guitar 1
Same as the intro, played through the whole chorus.

e|---------------------------------------------------------------------------|
B|-----------14----------------16----------------14--------------------------|
G|--15-15-15----15-15-15-15-15----15-15-15-15-15----15-15-13-13-13--15---13--|
D|---------------------------------------------------------------------------|
A|---------------------------------------------------------------------------|
D|---------------------------------------------------------------------------|


Guitar 2

e|---------------------------------------------------------------------------|
B|---------------------------------------------------------------------------|
G|---------------------------------------------------------------------------|
D|-4-4-4-4-4-4-4-4--1-1-1-1-1-1-1-1--8-8-8-8-8-8-8-8--6-6-6-6-6-6-6-6--------|
A|-4-4-4-4-4-4-4-4--1-1-1-1-1-1-1-1--8-8-8-8-8-8-8-8--6-6-6-6-6-6-6-6--------|
D|-4-4-4-4-4-4-4-4--1-1-1-1-1-1-1-1--8-8-8-8-8-8-8-8--6-6-6-6-6-6-6-6--------|

After the above chords are played twice through, play this once.

e|---------------------------------------------------------------------------|
B|---------------------------------------------------------------------------|
G|---------------------------------------------------------------------------|
D|-4-4-4-4-4-4-4-4-6-6-6-6-6-6-6-6-8-8-8-8-8-8-8-8-11-11-11-11-11-11-11-11---|
A|-4-4-4-4-4-4-4-4-6-6-6-6-6-6-6-6-8-8-8-8-8-8-8-8-11-11-11-11-11-11-11-11---|
D|-4-4-4-4-4-4-4-4-6-6-6-6-6-6-6-6-8-8-8-8-8-8-8-8-11-11-11-11-11-11-11-11---|


Then play the first set of chords once through again.


After chorus thingo. (sorry, I don't know the proper name.)
Guitar 1
Played twice.

e|---------------------------------------------------------------------------|
B|-------2---------4---------6---------2-------------------------------------|
G|-3-1-3-----3-1-3-----3-1-3-----3-1-3------3-1-3---3-1-3--------------------|
D|---------------------------------------------------------------------------|
A|---------------------------------------------------------------------------|
E|---------------------------------------------------------------------------|


Guitar 2
Played twice.

e|---------------------------------------------------------------------------|
B|---------------------------------------------------------------------------|
G|---------------------------------------------------------------------------|
D|-4-4-4-4-4-4-4-4--1-1-1-1-1-1-1-1--8-8-8-8-8-8-8-8--6-6-6-6-6-6-6-6--------|
A|-4-4-4-4-4-4-4-4--1-1-1-1-1-1-1-1--8-8-8-8-8-8-8-8--6-6-6-6-6-6-6-6--------|
E|-4-4-4-4-4-4-4-4--1-1-1-1-1-1-1-1--8-8-8-8-8-8-8-8--6-6-6-6-6-6-6-6--------|

Let final note ring out after 2nd time through.

Then play through as normal:
Verse
Chorus
After chorus thingo.


Bridge
Guitar 1
Played after the first "I'll tear you apart."
played heaps of times, progessively becoming louder.

e|--------------------------------------6-----6-----6-----6-----6------------|
B|---6-9---6-9---6-9---6-9---6-9------6-----6-----6-----6-----6--------------|
G|-8-----8-----8-----8-----8--------8-----8-----8-----8-----8----------------|
D|---------------------------------------------------------------------------|
A|---------------------------------------------------------------------------|
E|---------------------------------------------------------------------------|

Guitar 2
When the drums start to kick in totally.
Palm mute all of this.
Slowly build it up and to end the bridge don't palm mute the final chords.


e|---------------------------------------------------------------------------|
B|---------------------------------------------------------------------------|
G|---------------------------------------------------------------------------|
D|-8-8-8-8-8-8-8-8--4-4-4-4-4-4-4-4--6-6-6-6-6-6-6-6-------------------------|
A|-8-8-8-8-8-8-8-8--4-4-4-4-4-4-4-4--6-6-6-6-6-6-6-6-------------------------|
E|-8-8-8-8-8-8-8-8--4-4-4-4-4-4-4-4--6-6-6-6-6-6-6-6-------------------------|


Then play through as normal:
Chorus
After chorus thingo

and end on both guitars playing.

e|-----------------------------------|
B|-----------------------------------|
G|-----------------------------------|
D|-4~~~~~~~---1~~~~~~~---8~~~~~~~----|
A|-4~~~~~~~---1~~~~~~~---8~~~~~~~----|
E|-4~~~~~~~---1~~~~~~~---8~~~~~~~----|


I hope this tab was accurate and if you have any questions then just comment. This is my 
favourite song from Hope by an awesome band, hope to see them visit Australia again 
soon. :)



************************************

| /   slide up
| \   slide down
| h   hammer-on
| p   pull-off
| ~   vibrato
| +   harmonic
| x   Mute note
| b   Bend
| pb  Pre-bend
| br  Bend release
| pbr Pre-bend release
| brb Bend release bend

************************************
Tap to rate this tab
 
# A B C D E F G H I J K L M N O P Q R S T U V W X Y Z