Song name
# A B C D E F G H I J K L M N O P Q R S T U V W X Y Z

The Blackout - God Hates Brian tab

God Hates Brian by The Blackout

PM - Palm Muting
Ph - Pinch Harmonic
b - bend
/ - slide up or strum
p - pull-off


Verse
|-------------------------------|-------------------------------|
|-------------------------------|-------------------------------|
|-------------------------------|-------------------------------|
|-------------------------------|-5---/-/-/-/-/-/-9---/-/---/-/-|
|-7---/-/-/-/-/-/-5---/-/---/-/-|-3---/-/-/-/-/-/-7---/-/---/-/-|
|-5---/-/-/-/-/-/-3---/-/---/-/-|-----------------0-------------|
     PM----------    PM--------      PM----------

Chorus
|-------------------------------|---------------------------------|
|-------------------------------|---------------------------------|
|-------------------------------|---------------------------------|
|-------------------------------|-5-/-/-/-/-/-/-/-9-/-/-/-/-/-/-/-|
|-7-/-/-/-/-/-/-/-5-/-/-/-/-/-/-|-3-/-/-/-/-/-/-/-7-/-/-/-/-/-/-/-|
|-5-/-/-/-/-/-/-/-3-/-/-/-/-/-/-|-----------------0-/-/-/-/-/-/-/-|


Solo
|------------------------------------------------------|
|------------------------------------------------8b----|
|---------5---5---7b-5--------------5---5---7b-5-------|
|-5-7-5-7---7---7------7----5-7-5-7---7---7------------|
|------------------------------------------------------|
|------------------------------------------------------|



|------------5---------------5--------------------------|
|-8-7p-5p----5----8-7p-5p----5-------------------8-/-10-|
|---------7b---7b---------7b---5b-5b-5b-5b--------------|
|------------------------------------------5-/-7--------|
|-------------------------------------------------------|
|-------------------------------------------------------|
                               Ph Ph Ph Ph

Intro(Only Gtr)
Verse X6
Chorus X4
Solo(Verse Riff X2)
Verse X4
Chorus X8
End on A chord
Tap to rate this tab
 
# A B C D E F G H I J K L M N O P Q R S T U V W X Y Z