Song name
# A B C D E F G H I J K L M N O P Q R S T U V W X Y Z

The Blackout - Murder In The Make-believe Ballroom tab

Help us improve GuitareTab! Take a short survey!
Tabbed by: Jack Steele
Email: blink182_rock_yeah@hotmail.co.uk

Tuning:Standard

Dont follow the strum pattern exactly, thats just how i wored it out.

e|----------------------------------------------------------|--------------|
B|----------------------------------------------------------|--------------|
G|--13--------12--------8-------10---------8---------5------|--------------|
D|---x--x8-----x--x1----x--x1----x--x1-----x--x9-----x--x2--|---x3---------|
A|--11--------10--------6--------8---------6---------3------|--------------|
E|----------------------------------------------------------|--------------|


e|------------------------------------------------------------------|------|
B|------------------------------------------------------------------|------|
G|--13--------12--------8-------10---------8---------5--------8-----|------|
D|---x--x8-----x--x1----x--x1----x--x1-----x--x9-----x--x2----x--x3-|---x1-|
A|--11--------10--------6--------8---------6---------3--------6-----|------|
E|------------------------------------------------------------------|------|


Related for Murder In The Make-believe Ballroom tab