Song name
# A B C D E F G H I J K L M N O P Q R S T U V W X Y Z

The Blackout - Fashion Concious Suicide tab

this is all done by finger tapping and is relatively easy once picked up really, i hope 
right, it's pretty close! have fun!

Rhythm Guitar :

Drop D : D-A-D-G-B-E

E|------------------------------------------------------------------------|
B|--7-4-6-4-7-4-6-4-7-4-6-4-7-4-6-4-7-2-6-2-7-2-6-2-7-2-6-2-7-2-6-2-------|
G|------------------------------------------------------------------------|
D|------------------------------------------------------------------------|
A|------------------------------------------------------------------------|
D|------------------------------------------------------------------------|


E|------------------------------------------------------------------------|
B|--7-0-6-0-7-0-6-0-7-0-6-0-7-0-6-0-7-2-6-2-7-2-6-2-7-2-6-2-7-2-6-2-------|
G|------------------------------------------------------------------------|
D|------------------------------------------------------------------------|
A|------------------------------------------------------------------------|
D|------------------------------------------------------------------------|


this bit is the lead guitar which is normal picking which starts over the top of the 
part!

Lead Guitar :

Drop D : D-A-D-G-B-E

E|-----6----------------------------------6-------------------------------|
B|-------6--6h7p6--7-9-7-6--6h7p6-----------6--6h7h9--7-6-7-6--6h7p6------|
G|--5/8---------------------------6---5/8----------------------------6----|
D|------------------------------------------------------------------------|
A|------------------------------------------------------------------------|
D|------------------------------------------------------------------------|
Tap to rate this tab
 
# A B C D E F G H I J K L M N O P Q R S T U V W X Y Z