Song name
# A B C D E F G H I J K L M N O P Q R S T U V W X Y Z

The Blackout - High Tide Baby tab

Help us improve GuitareTab! Take a short survey!
This is the one with Ian from lostprophets

the end is screwed but ah well

~=let note ring

/slide up

h hammer on

p pull off

Intro

Guitar 1
e|-----3----5~------3----5~-----3----5~------3---5~----5----7~---------|
b|-33----------33-----------33----------55---------55------------------|
g|---------------------------------------------------------------------|
d|---------------------------------------------------------------------|
a|---------------------------------------------------------------------|
d|---------------------------------------------------------------------|

e|------3---5~--3--3h5p3--------------------------------------------------|
b|--33--------------------------------------------------------------------|
g|-----------------------------------------------------------X2-----------|
d|------------------------------------------------------------------------|
a|------------------------------------------------------------------------|
d|------------------------------------------------------------------------|


Guitar 2
e|---------------------------------------------------------------------------|
b|---------------------------------------------------------------------------|
g|--5------3-----9-----------------------------------------------------------|
d|--x--x8--x-x8--x---x8---------------------X2-------------------------------|
a|--3------5-----7-----------------------------------------------------------|
d|---------------------------------------------------------------------------|


Verse

Guitar2
e|------------------------------------------------------------------------|
b|------------------------------------------------------------------------|
g|------------------------------------------------------------------------|
d|---0h3h5-0h3h5-0h5h7-0h3h5----------------------------------------------|
a|------------------------------------------------------------------------|
d|------------------------------------------------------------------------|


Guitar1
e|-----3----5~------3----5~-----3----5~------3---5~----5----7~---------|
b|-33----------33-----------33----------55---------55------------------|
g|---------------------------------------------------------------------|
d|---------------------------------------------------------------------|
a|---------------------------------------------------------------------|
d|---------------------------------------------------------------------|

e|------3---5~--3--3h5p3-----------------------------------------------|
b|--33-----------------------------------------------------------------|
g|---------------------------------------------------------------------|
d|---------------------------------------------------------------------|
a|---------------------------------------------------------------------|
d|---------------------------------------------------------------------|

Chorus is the same as intro


Verse again

Interlude

Guitar 2

e|--------------------------------------------------------------|
b|--------------------------------------------------------------|
g|--5~----------------------------------------------------------|
d|--5~----------------------------------------------------------|
a|--3~----------------------------------------------------------|
d|--------------------------------------------------------------|

Guitar 1

e|------------------------------------------------------------------|
b|------------------------------------------------------------------|
g|---5/7-7/9-7--9--7---5/7-7/9-9-7--11-----5/7-7/9-7--9-7-----------|
d|------------------------------------------------------------------|
a|------------------------------------------------------------------|
d|------------------------------------------------------------------|


Chorus

Both guitars

e|-------------------------------------------------------------------|
b|-------------------------------------------------------------------|
g|---5---------------------------------------------------------------|
d|---5-----------dont know strum pattern-----------------------------|
a|---3---------------------------------------------------------------|
d|-------------------------------------------------------------------|
Related for High Tide Baby tab