Song name
# A B C D E F G H I J K L M N O P Q R S T U V W X Y Z

The Blacksmith Experience - My Lobster tab

-----------------------------------------------------------------------------
	           MY LOBSTER - The Blacksmith Experience
-----------------------------------------------------------------------------

Tabbed by: Michael Sveten
Email: Smikeb04@yahoo.com
Website: http://www.myspace.com/smblacksmith
Label: Indy Revo Records
Tuning: Standard


Intro

e|--------------------------------------------------------------------------|
B|---3----1-----0------3----1-----0------3----1-----0------3----1-----------|
G|--2-2--2-2---0-0-0--2-2--2-2---0-0-0--2-2--2-2---0-0-0--2-2--2-2----------|
D|-0----2-----0---0--0----2-----0---0--0----2-----0---0--0----2-------------|
A|--------------------------------------------------------------------------|
E|-----------3-----------------3-----------------3--------------------------|

Verse (As I walk this shallow beach...)

e|-1-11111------2-22222-------------------1-11111---------------------------|
B|--------------3-33333------1-11111----------------------------------------|
G|--------------2-22222------2-22222----------------------------------------|
D|---------------------------2-22222----------------------------------------|
A|-2-22222--------------------------------2-22222---------------------------|
E|-3-33333--------------------------------3-33333---------------------------|

Chorus (Will I ever find you there...) 

e|-2x------------------------1-11111--------------------------------------|
B|-3x--1x--3333333--1-11111-----------------------------------------------|
G|-2x--2x--4444444--0-00000-----------------------------------------------|X2
D|-----2x--4444444--2-00000-----------------------------------------------|
A|---------2222222--3-33333--2-22222--------------------------------------|
E|---------------------------3-33333--------------------------------------|

(Will you be my lobster...)

e|-------------1-111-111--------------------------------------------------|
B|-1-11-------------------------------------------------------------------|
G|-0-00--1-11-------------------------------------------------------------|X4
D|-2-22--2-22-------------------------------------------------------------|
A|-3-33--2-22--2-222-222--------------------------------------------------|
E|-------------3-333-333--------------------------------------------------|

Outro

e|-2x------------------------1-11111--2x-------------------------1~~-------|
B|-3x--1x--3333333--1-11111-----------3x--1x---3333333--1-11111------------|
G|-2x--2x--4444444--0-00000-----------2x--2x---4444444--0-00000------------|
D|-----2x--4444444--2-00000---------------2x---3333333--2-22222------------|
A|---------2222222--3-33333--2-22222-----------2222222--3-33333--2~~-------|
E|---------------------------3-33333-----------------------------3~~-------|

************************************
Tap to rate this tab
# A B C D E F G H I J K L M N O P Q R S T U V W X Y Z