Song name
# A B C D E F G H I J K L M N O P Q R S T U V W X Y Z

The Blacksmith Experience - My Soul tab

---------------------------------------------------------------------------
	          MY SOUL - The Blacksmith Experience
---------------------------------------------------------------------------
Tabbed by: Michael Sveten
Email: smikeb04@yahoo.com

Tuning: Standerd

Main riff

Intro X2

Verse X4

e|------------------------------------------------------------------------|
B|----1-------3-------1--3--1---------------------------------------------|
G|---0-0-0---0-0-0---2-2--2--2-2------------------------------------------|
D|------2-------0-------2--2--2-------------------------------------------|
A|--3-------2-------0-----------------------------------------------------|
E|------------------------------------------------------------------------|

Fill

e|---------333-33---------------------------------------------------------|
B|--1-111--333-33--0-00-0h1-----------------------------------------------|
G|--0-000--000-00--2-22-2-------------------------------------------------|
D|--2-222--000-00--2-22-2-------------------------------------------------|
A|--3-333--222-22---------------------------------------------------------|
E|---------333-33---------------------------------------------------------|


Chorus

e|--3-33-333--3-33-333----------------------------------------------------|
B|--3-33-333--3-33-333--1-11-111-111-111----------------------------------|
G|--0-00-000--0-00-000--2-22-222-222-222----------------------------------|
D|--0-00-000--0-00-000--2-22-222-222-222----------------------------------|
A|--2-22-222--2-22-222----------------------------------------------------|
E|--3-33-333--3-33-333----------------------------------------------------|

Outro X2

e|------------------------------------------------------------------------|
B|----1-------3-------1--3--1-------1-------3-------1--3--1------1--------|
G|---0-0-0---0-0-0---2-2--2--2-2---0-0-0---0-0-0---2-2--2--2-2-0-0--------|
D|------2-------0-------2--2--2-------2-------0-------2--2--2-------------|
A|--3-------2-------0-------------3-------2-------0-----------------------|
E|------------------------------------------------------------------------|




Verse 1

Feel my spirit growing old
Feel my body getting cold
Long ago I sold my soul
And for what I do not know
Oh no, no no

Verse 2

I look back on all my days
People lost along the way
Losing all my words to say
Trying not to fade away
Away, oh no

Verse 3

Though my time here may be brief
Fighting for some small relief
From this scarring, black disease
So God grant me this reprieve
Reprieve, oh

Chorus 

Feel my spirit growing old
Feel my body getting cold
Long ago I sold my soul
And for what I do not know
Oh no, no no
Tap to rate this tab
 
# A B C D E F G H I J K L M N O P Q R S T U V W X Y Z