Song name
# A B C D E F G H I J K L M N O P Q R S T U V W X Y Z

The Blacksmith Experience - Have Another Pint On Me tab

-----------------------------------------------------------------------------
	     Have Another Pint on Me - The Blacksmith Experience
-----------------------------------------------------------------------------

Tabbed by: Michael Sveten
Email: Smikeb04@yahoo.com

Tuning: Standard

Intro

e|--------------------------------------------------------------------------|
B|--------------------------------------------------------------------------|
G|----------5-5550----------7-7770----------5-5550--------------------------|
D|--5-5550--5-5550--7-7770--7-7770--5-5550--5-5550--7-77-77-7797------------|
A|--5-5550--3-3330--7-7770--5-5550--5-5550--3-3330--7-77-77-7797------------|
E|--3-3330----------5-5550----------3-3330----------5-55-55-5575------------|

e|--------------------------------------------------------------------------|
B|--------------------------------------------------------------------------|
G|----------5-5550----------7-7770------------------------------------------|
D|--5-5550--5-5550--7-7770--7-7770--5-55555-55555-55555---------------------|
A|--5-5550--3-3330--7-7770--5-5550--5-55555-55555-55555---------------------|
E|--3-3330----------5-5550----------3-33333-33333-33333---------------------|

Verse 1 & 2

e|--------------------------------------------------------------------------|
B|--------------------------------------------------------------------------|
G|---------------------------5-55555-55555-55555-5555-----------------------|
D|--5-5555-55555-55555-5555--5-55555-55555-55555-5555-----------------------|
A|--5-5555-55555-55555-5555--3-33333-33333-33333-3333-----------------------|
E|--3-3333-33333-33333-3333-------------------------------------------------|

Chorus

e|--------------------------------------------------------------------------|
B|--------------------------------------------------------------------------|
G|----------5-5550----------7-7770----------5-5550--------------------------|
D|--5-5550--5-5550--7-7770--7-7770--5-5550--5-5550--7-77-77-7797------------|
A|--5-5550--3-3330--7-7770--5-5550--5-5550--3-3330--7-77-77-7797------------|
E|--3-3330----------5-5550----------3-3330----------5-55-55-5575------------|

e|--------------------------------------------------------------------------|
B|--------------------------------------------------------------------------|
G|----------5-5550----------7-7770------------------------------------------|
D|--5-5550--5-5550--7-7770--7-7770--5-55555-55555-55555---------------------|
A|--5-5550--3-3330--7-7770--5-5550--5-55555-55555-55555---------------------|
E|--3-3330----------5-5550----------3-33333-33333-33333---------------------|

Verse 3

e|--7-77777-77777-77777-7777--5-55555-55555-55555-5555----------------------|
B|--8-88888-88888-88888-8888--6-66666-66666-66666-6666----------------------|
G|--9-99999-99999-99999-9999--7-77777-77777-77777-7777-------X3-------------|
D|--9-99999-99999-99999-9999--7-77777-77777-77777-7777----------------------|
A|--7-77777-77777-77777-7777--5-55555-55555-55555-5555----------------------|
E|--------------------------------------------------------------------------|

e|--5-55555-55555-55555-5555------------------------------------------------|
B|--6-66666-66666-66666-6666------------------------------------------------|
G|--5-55555-55555-55555-5555--5-55550---------------------------------------|
D|--9-99999-99999-99999-9999--5-55550---------------------------------------|
A|--9-99999-99999-99999-9999--5-55550---------------------------------------|
E|--5-55555-55555-55555-5555------------------------------------------------|

Verse 1

Let's go down to the pub and we'll have a pint
We'll rock the streets of London burnin' out the moonlight
Singing the Clash on Trafalgar Square
Walking the Thames with the bottle we share
Growing old in Kilburn we'll salute these drunken nights

Chorus

Have another pint on me
Have another pint on me
Have another pint on me
Have another pint on me

Verse 2

Now we're back in the pub and we grab out seats
Queen comes on the jukebox and we rock the beat
Fat bottomed girls make the world go round
Shaun of the Dead and Don't Stop Me Now
Slamming shots of Jaeger to rekindle some lost heat

Chorus

Have another pint on me
Have another pint on me
Have another pint on me
Have another pint on me

Verse 3

On the street with my mates as we sing our song
We're gonna rock out all night long
We'll spend the day 
And we'll waste away
Until the sunlit dawn breaks free
And all that's left for me to say
Have a pint on me!

Chorus

Have another pint on me
Have another pint on me
Have another pint on me
Have another pint on me

Have another pint on me
Have another pint on me
Have another pint on me
Have another pint on me
Tap to rate this tab
 
# A B C D E F G H I J K L M N O P Q R S T U V W X Y Z