Song name
# A B C D E F G H I J K L M N O P Q R S T U V W X Y Z

The Blacksmith Experience - When Im Gone tab

-----------------------------------------------------------------------------
		 When I'm Gone - The Blacksmith Experience
-----------------------------------------------------------------------------
Tabbed by: Michael Sveten
Email: smikeb04@yahoo.com

Tuning: Standard

Intro

e|-------------------------------------------------------------------------|
B|-------------------------------------------------------------------------|
G|-------------------------------------------------------------------------|
D|-------------------------------------------------------------------------|
A|-------22-2---------22-2---------22-2---------22-2---------22-2----------|
E|-3-3333--3-3--2-2222--2-2--0-0000--0-0--0-0000--0-0--3-3333--3-----------|

e|-------------------------------------------------------------------------|
B|-------------------------------------------------------------------------|
G|-------------------------------------------------------------------------|
D|----------------------------------2--------------------------------------|
A|--------22-2---------22-2---------2--------------------------------------|
E|--2-2222--2-2--0-0000--0-0--0-00000--------------------------------------|

e|-------------------------------------------------------------------------|
B|-------------------------------------------------------------------------|
G|------------------------------------------000-0-0000-00-00-00-00-00------|
D|--0-00-000--0-00-000--0-00-000--0-00-000--222-2-2222-22-00-22-00-20------|
A|--2-22-222--2-22-222--2-22-222--2-22-222--333-2-2222-33-22-33-22-32------|
E|--3-33-333--3-33-333--2-22-222--2-22-222---------------------------------|

e|-------------------------------------------------------------------------|
B|-------------------------------------------------------------------------|
G|------------------------------------------000-0-0000-00-0-000-00-0-000---|
D|--0-00-000--0-00-000--0-00-000--0-00-000--222-2-2222-22-2-222-22-2-222---|
A|--2-22-222--2-22-222--2-22-222--2-22-222--333-2-2222-33-3-333-33-3-333---|
E|--3-33-333--3-33-333--2-22-222--2-22-222---------------------------------|

Verse 1

e|-------------------------------------------------------------------------|
B|-------------------------------------------------------------------------|
G|-------------------------------------0-00-000-0-00-000-0-00-000-0-00-000-|
D|-0-00-000-0-00-000-0-00-000-0-00-000-0-00-000-0-00-000-2-22-222-2-22-222-|
A|-2-22-222-2-22-222-2-22-222-2-22-222-2-22-222-2-22-222-3-33-333-3-33-333-|
E|-3-33-333-3-33-333-2-22-222-2-22-222-------------------------------------|

Chorus

e|-------------------------------------------------------------------------|
B|-------------------------------------------------------------------------|
G|------------------------------------------000-0-0000-00-00-00-00-00------|
D|--0-00-000--0-00-000--0-00-000--0-00-000--222-2-2222-22-00-22-00-20------|
A|--2-22-222--2-22-222--2-22-222--2-22-222--333-2-2222-33-22-33-22-32------|
E|--3-33-333--3-33-333--2-22-222--2-22-222---------------------------------|

e|-------------------------------------------------------------------------|
B|-------------------------------------------------------------------------|
G|------------------------------------------000-0-0000-00-0-000-00-0-000---|
D|--0-00-000--0-00-000--0-00-000--0-00-000--222-2-2222-22-2-222-22-2-222---|
A|--2-22-222--2-22-222--2-22-222--2-22-222--333-2-2222-33-3-333-33-3-333---|
E|--3-33-333--3-33-333--2-22-222--2-22-222---------------------------------|

e|-------------------------------------------------------------------------|
B|-------------------------------------------------------------------------|
G|-------------------------------------------------------------------------|
D|-------------------------------------------------------------------------|
A|-------22-2---------22-2---------22-2---------22-2---------22-2----------|
E|-3-3333--3-3--2-2222--2-2--0-0000--0-0--0-0000--0-0--3-3333--3-----------|

e|-------------------------------------------------------------------------|
B|-------------------------------------------------------------------------|
G|-------------------------------------------------------------------------|
D|----------------------------------2--------------------------------------|
A|--------22-2---------22-2---------2--------------------------------------|
E|--2-2222--2-2--0-0000--0-0--0-00000--------------------------------------|

Verse 2

e|-------------------------------------------------------------------------|
B|-------------------------------------------------------------------------|
G|-------------------------------------0-00-000-0-00-000-0-00-000-0-00-000-|
D|-0-00-000-0-00-000-0-00-000-0-00-000-0-00-000-0-00-000-2-22-222-2-22-222-|
A|-2-22-222-2-22-222-2-22-222-2-22-222-2-22-222-2-22-222-3-33-333-3-33-333-|
E|-3-33-333-3-33-333-2-22-222-2-22-222-------------------------------------|

e|-------------------------------------------------------------------------|
B|-------------------------------------------------------------------------|
G|-------------------------------------0-00-000-0-00-000-0-00-0000---------|
D|-0-00-000-0-00-000-0-00-000-0-00-000-0-00-000-0-00-000-2-22-2222---------|
A|-2-22-222-2-22-222-2-22-222-2-22-222-2-22-222-2-22-222-3-33-3333---------|
E|-3-33-333-3-33-333-2-22-222-2-22-222-------------------------------------|

Chorus

Verse 3 

   (This life..)   (I'm running..) (I can't help..) (Is this..)

e|-------------------------------------------------------------------------|
B|-------------------------------------------------------------------------|
G|----------------------------------0~~--------------0~~-------------------|
D|--0~~-------------0~~-------------0~~--------------2~~-------------------|
A|--2~~-------------2~~-------------2~~--------------3~~-------------------|
E|--3~~-------------2~~----------------------------------------------------|

Chorus

Outro

e|-------------------------------------------------------------------------|
B|-------------------------------------------------------------------------|
G|-------------------------------------------------------------------------|
D|-------------------------------------------------------------------------|
A|-------22-2---------22-2---------22-2---------22-2---------22-2----------|
E|-3-3333--3-3--2-2222--2-2--0-0000--0-0--0-0000--0-0--3-3333--3-----------|

e|-------------------------------------------------------------------------|
B|-------------------------------------------------------------------------|
G|-------------------------------------------------------------------------|
D|----------------------------------2--------------------------------------|
A|--------22-2---------22-2---------2--------------------------------------|
E|--2-2222--2-2--0-0000--0-0--0-00000--------------------------------------|\



Verse 1

I've said it once before
I will say it again
This life I've come to love 
Has come crashing to an end

I've built myself up high
But nowhere worth the trip
As I look back on life
I think of all my friends

Chorus

When I'm gone
Will you remember me?
For all good things I've done

Or will I be
A shining example of 
What not to do

Verse 2

For all that I loved
Well all that were true
If I would die today
Would it still affect you?

And all that I hate
Well all that was true
I just like to give out a big
"Fuck you"

Chorus

When I'm gone
Will you remember me?
For all good things I've done

Or will I be
A shining example of 
What not to do

Verse 3

This life has been used up
I'm living borrowed time
I can't help but think
Is this the end of the line?

Chorus

When I'm gone
Will you remember me?
For all good things I've done

Or will I be
A shining example of 
What not to do
Tap to rate this tab
# A B C D E F G H I J K L M N O P Q R S T U V W X Y Z