Song name
# A B C D E F G H I J K L M N O P Q R S T U V W X Y Z

The Blacksmith Experience - Curtain Called tab

----------------------------------------------------------------------------
            Curtains Closed - The Blacksmith Experience
----------------------------------------------------------------------------
Tabbed by: Michael Sveten	
Email: smikeb04@yahoo.com	

Tuning: Standard


Intro

e|--333-222-000-----0022--333-222-000---------------------------------------|
B|--------------333-------------------333-----------------------------------|
G|----------------------------------------2200-----(X2)---------------------|
D|--------------------------------------------------------------------------|
A|--------------------------------------------------------------------------|
E|--------------------------------------------------------------------------|

e|--333-222-000-000-0022--333-222-000-000-0000------------------------------|
B|--000-000-000-333-0000--000-000-000-333-0000------------------------------|
G|--000-000-000-000-0000--000-000-000-000-2200-----(X2)---------------------|
D|--------------------------------------------------------------------------|
A|--------------------------------------------------------------------------|
E|--------------------------------------------------------------------------|

Verse 1

    (Feels like..)                (Since I've stepped..) 

e|--1-1-11-11-111--0-0-00-00-000--1-1-11-11-111--0-0-00-00-000--------------|
B|--0-0-00-00-000--1-1-13-31-131--0-0-00-00-000--1-1-13-31-131--------------|
G|--0-0-00-00-000--0-0-00-00-000--0-0-00-00-000--0-0-00-00-000---(X2)-------|
D|--0-0-00-00-000--2-2-22-22-222--0-0-00-00-000--2-2-22-22-222--------------|
A|--2-2-22-22-222--3-3-33-33-333--2-2-22-22-222--3-3-33-33-333--------------|
E|--3-3-33-33-333--0-0-00-00-000--3-3-33-33-333--0-0-00-00-000--------------|

Interlude

e|-----------------0-0-00-00-000-----------------0-0-00-00-000--------------|
B|-----------------3-3-33-33-333-----------------1-1-11-11-111--------------|
G|--0-0-00-00-000--0-0-00-00-000--0-0-00-00-000--0-0-00-00-000--------------|
D|--2-2-22-22-222--0-0-00-00-000--2-2-22-22-222--2-2-22-22-222--------------|
A|--3-3-33-33-333--2-2-22-22-222--3-3-33-33-333--3-3-33-33-333--------------|
E|--3-3-33-33-333-----------------3-3-33-33-333-----------------------------|

Verse 2

    (Remember all those..)        (Memorizing..) 

e|--1-1-11-11-111--0-0-00-00-000--1-1-11-11-111--0-0-00-00-000--------------|
B|--0-0-00-00-000--1-1-13-31-131--0-0-00-00-000--1-1-13-31-131--------------|
G|--0-0-00-00-000--0-0-00-00-000--0-0-00-00-000--0-0-00-00-000---(X2)-------|
D|--0-0-00-00-000--2-2-22-22-222--0-0-00-00-000--2-2-22-22-222--------------|
A|--2-2-22-22-222--3-3-33-33-333--2-2-22-22-222--3-3-33-33-333--------------|
E|--3-3-33-33-333--0-0-00-00-000--3-3-33-33-333--0-0-00-00-000--------------|

Chorus

    (The stage..)                 (And the curtains..)

e|-----------------0-0-00-00-000-----------------0-0-00-00-000--------------|
B|-----------------3-3-33-33-333-----------------3-3-33-33-333--------------|
G|--0-0-00-00-000--0-0-00-00-000--0-0-00-00-000--0-0-00-00-000--------------|
D|--2-2-22-22-222--0-0-00-00-000--2-2-22-22-222--0-0-00-00-000--------------|
A|--3-3-33-33-333--2-2-22-22-222--3-3-33-33-333--2-2-22-22-222--------------|
E|--3-3-33-33-333-----------------3-3-33-33-333-----------------------------|

    (When the..)           (But the stage..)

e|----------------------------------------0-0000-00-000---------------------|
B|---------1-11-333-11110-----------------2-2222-22-222---------------------|
G|--0-000--0-00-000-00000--0-0-00-00-000--0-0000-00-000---------------------|
D|--2-222--2-22-222-22222--2-2-22-22-222--0-0000-00-000---------------------|
A|--3-333--3-33-333-33333--3-3-33-33-333--3-3333-33-333---------------------|
E|--3-333------------------3-3-33-33-333------------------------------------|

e|--333-222-000-000-0022--333-222-000-000-0000------------------------------|
B|--000-000-000-333-0000--000-000-000-333-0000------------------------------|
G|--000-000-000-000-0000--000-000-000-000-2200-----(X2)---------------------|
D|--------------------------------------------------------------------------|
A|--------------------------------------------------------------------------|
E|--------------------------------------------------------------------------|

Verse 3

    (We got the rush..)           (Playing to the..) 

e|--1-1-11-11-111--0-0-00-00-000--1-1-11-11-111--0-0-00-00-000--------------|
B|--0-0-00-00-000--1-1-13-31-131--0-0-00-00-000--1-1-13-31-131--------------|
G|--0-0-00-00-000--0-0-00-00-000--0-0-00-00-000--0-0-00-00-000---(X2)-------|
D|--0-0-00-00-000--2-2-22-22-222--0-0-00-00-000--2-2-22-22-222--------------|
A|--2-2-22-22-222--3-3-33-33-333--2-2-22-22-222--3-3-33-33-333--------------|
E|--3-3-33-33-333--0-0-00-00-000--3-3-33-33-333--0-0-00-00-000--------------|

Interlude

e|-----------------0-0-00-00-000-----------------0-0-00-00-000--------------|
B|-----------------3-3-33-33-333-----------------1-1-11-11-111--------------|
G|--0-0-00-00-000--0-0-00-00-000--0-0-00-00-000--0-0-00-00-000--------------|
D|--2-2-22-22-222--0-0-00-00-000--2-2-22-22-222--2-2-22-22-222--------------|
A|--3-3-33-33-333--2-2-22-22-222--3-3-33-33-333--3-3-33-33-333--------------|
E|--3-3-33-33-333-----------------3-3-33-33-333-----------------------------|

Verse 4

    (It was so damn hard..)       (To finally say..) 

e|--1-1-11-11-111--0-0-00-00-000--1-1-11-11-111--0-0-00-00-000--------------|
B|--0-0-00-00-000--1-1-13-31-131--0-0-00-00-000--1-1-13-31-131--------------|
G|--0-0-00-00-000--0-0-00-00-000--0-0-00-00-000--0-0-00-00-000---(X2)-------|
D|--0-0-00-00-000--2-2-22-22-222--0-0-00-00-000--2-2-22-22-222--------------|
A|--2-2-22-22-222--3-3-33-33-333--2-2-22-22-222--3-3-33-33-333--------------|
E|--3-3-33-33-333--0-0-00-00-000--3-3-33-33-333--0-0-00-00-000--------------|

Chorus

    (The stage..)                 (And the curtains..)

e|-----------------0-0-00-00-000-----------------0-0-00-00-000--------------|
B|-----------------3-3-33-33-333-----------------3-3-33-33-333--------------|
G|--0-0-00-00-000--0-0-00-00-000--0-0-00-00-000--0-0-00-00-000--------------|
D|--2-2-22-22-222--0-0-00-00-000--2-2-22-22-222--0-0-00-00-000--------------|
A|--3-3-33-33-333--2-2-22-22-222--3-3-33-33-333--2-2-22-22-222--------------|
E|--3-3-33-33-333-----------------3-3-33-33-333-----------------------------|

    (When the..)           (But the stage..)

e|----------------------------------------0-0000-00-000---------------------|
B|---------1-11-333-11110-----------------2-2222-22-222---------------------|
G|--0-000--0-00-000-00000--0-0-00-00-000--0-0000-00-000---------------------|
D|--2-222--2-22-222-22222--2-2-22-22-222--0-0000-00-000---------------------|
A|--3-333--3-33-333-33333--3-3-33-33-333--3-3333-33-333---------------------|
E|--3-333------------------3-3-33-33-333------------------------------------|

Solo

e|--333-222-000-000-0022--333-222-000-000-0000--333-222-000 000 0022--------|
B|--000-000-000-333-0000--000-000-000-333-0000--000 000 000 333 0000--------|
G|--000-000-000-000-0000--000-000-000-000-2200--000-000-000-000-0000--------|
D|--------------------------------------------------------------------------|
A|--------------------------------------------------------------------------|
E|--------------------------------------------------------------------------|

e|--333-222-000-000-0000--333-222-555-333-2200--333-222-000-000-0000--------|
B|--000-000-000-333-0000--000-000-000-000-0033--000-000-000-333-0000--------|
G|--000-000-000-000-2200--000-000-000-000-0000--000-000-000-000-2200--------|
D|--------------------------------------------------------------------------|
A|--------------------------------------------------------------------------|
E|--------------------------------------------------------------------------|

e|--333-222-555-333-2200--333-222-000-000-0000--333-222-000-000-0000--------|
B|--000-000-000-000-0033--000-000-000-333-0000--000-000-333-000-0000--------|
G|--000-000-000-000-0000--000-000-000-000-2200--000-000-000-222-0000--------|
D|--------------------------------------------------------------------------|
A|--------------------------------------------------------------------------|
E|--------------------------------------------------------------------------|

Chorus

    (The stage..)                 (And the curtains..)

e|-----------------0-0-00-00-000-----------------0-0-00-00-000--------------|
B|-----------------3-3-33-33-333-----------------3-3-33-33-333--------------|
G|--0-0-00-00-000--0-0-00-00-000--0-0-00-00-000--0-0-00-00-000----(X2)------|
D|--2-2-22-22-222--0-0-00-00-000--2-2-22-22-222--0-0-00-00-000--------------|
A|--3-3-33-33-333--2-2-22-22-222--3-3-33-33-333--2-2-22-22-222--------------|
E|--3-3-33-33-333-----------------3-3-33-33-333-----------------------------|

    (When the..)           (But the stage..)

e|----------------------------------------0-0000-00-000---------------------|
B|---------1-11-333-11110-----------------2-2222-22-222---------------------|
G|--0-000--0-00-000-00000--0-0-00-00-000--0-0000-00-000---------------------|
D|--2-222--2-22-222-22222--2-2-22-22-222--0-0000-00-000---------------------|
A|--3-333--3-33-333-33333--3-3-33-33-333--3-3333-33-333---------------------|
E|--3-333------------------3-3-33-33-333------------------------------------|

Outro

    (The stage...) X4

e|--333-222-000-000-0022--333-222-000-000-0000------------------------------|
B|--000-000-000-333-0000--000-000-000-333-0000------------------------------|
G|--000-000-000-000-0000--000-000-000-000-2200-----(X6)---------------------|
D|--------------------------------------------------------------------------|
A|--------------------------------------------------------------------------|
E|--------------------------------------------------------------------------|



Curtains Closed 


(Verse 1)

Feels like it's been forever
Since I've stepped on that stage
To see those curtains open
Recalls another age

(verse 2)

Remember all those nights?
Memorizing lines
Building sets and blocking
The heat under the lights

(Chorus)

The stage was meant for us to call home
And the curtain called for us to follow
When the curtains closed forever
The storyline drew on
But the stage was meant for us to call home

(Verse 3)

we got the rush we needed
Playing to the crowd
Living for each other
Working for ourselves

(Verse 4)

It was so damn hard
To finally say goodbye
And now it's left to cherish 
That final closing night

(Chorus)

The stage was meant for us to call home
And the curtain called for us to follow
When the curtains closed forever
The storyline drew on
But the stage was meant for us to call home

(Solo)

The stage was meant for us to call home
And the curtain called for us to follow
When the curtains closed forever
The storyline drew on
But the stage was meant for us to call home

(Outro)

But the stage was meant for us to call home (X4)
Tap to rate this tab
 
# A B C D E F G H I J K L M N O P Q R S T U V W X Y Z