Song name
# A B C D E F G H I J K L M N O P Q R S T U V W X Y Z

The Blake Babies - Girl In A Box tab

Highlighted       Show chord diagrams
Girl in a Box
By: Blake Babies
Album: Sunburn
http://www.blakebabies.com/

Chords:

Fmaj7, C, Am, G, Fmaj
Capo on 5th Fret


  Fmaj7        C	Am              G		Fmaj
|-----------|---------|--------|----3-------------|--1----------|
|---1-------|---1-----|---1----|----3-------------|--1----------|
|-----2-----|-----2---|-----2--|--------4---------|------2------|
|--------3--|---------|-----2--|-----------5------|--------3----|
|-----------|-------3-|--------|-----------5------|--------3----|
|-----------|---------|--------|----3-------------|--1----------|




Verse     
                 1/8 note
                 Hammeron 
|-1---------------------------------------------------------]
|----------1----1-----------1-------1----1------------------]
|---2--------2----0/3/0-------2------2----0/3/0-------------]
|--------------3---3------------------3----3----------------]
|-----3--------------------------3--------------------------]
|-----------------------------------------------------------]

Chorus

G, Fmaj (x3)  Am, G, Fmaj




C         Fmaj7     C    Fmaj7
Ive got a girl in a box,
C                 Fmaj7   C             Fmaj7      C        Fmaj7  C Fmaj7  
Keep her under my bed, it sure must get hot in the summertime.
C         Fmaj7           C               Fmaj7
I get her out when theres nothing else to do.
            C          Fmaj7      C        Fmaj7
When theres nothing on tv, when I cant see you.
C         Fmaj7     C          Fmaj7
Wife dont mind if I give her a child.
   C         Fmaj7     C                 Fmaj7
My wife dont mind, she thinks its pretty wild

             C         Fmaj7, C, Fmaj7        C     (strum) Fmaj7  C  Fmaj7 
Ive got this girl in a box,             I got a girl in a box.

Chorus:
G            Fmaj     
Ill keep her till the day,
G            Fmaj     
Ill keep her till the day,
G            Fmaj7               Am
Ill keep her till the day that I die
Am                      G
And I hope I die in the nighttime                         (Picked)
        G           Fmaj                    C / Fmaj7 C / Fmaj7 / C / Fmaj7 
With my tv on and a beer in my hand and you by my side.

C       Fmaj7     C    Fmaj7
I got a girl in a box,
C       Fmaj7     C           Fmaj7
We play games, Im anything Im not,
      C       Fmaj7  C  Fmaj7      C        Fmaj     C   Fmaj7    
But I wanna be,             yeah, I wanna be.
C           Fmaj7      C            Fmaj7
She'll be a slut, or a dirty little whore
       C         Fmaj7      C        Fmaj7
Or the girl next door or my bride instead
       C           Fmaj7
Or Ill cut off her head,
     C    Fmaj, C, Fmaj7    C       Fmaj7    C  Fmaj 
If I want to,                yeah, I want to.
Chorus:
G            Fmaj     
Ill keep her till the day,
G            Fmaj     
Ill keep her till the day,
G            Fmaj7               C   Fmaj7  C  Fmaj7
Ill keep her till the day that I die
          C             Fmaj7  C  Fmaj7
Ive got a girl in a box.
          C  (let ring)
Ive got a girl in a box.
Tap to rate this tab
 
# A B C D E F G H I J K L M N O P Q R S T U V W X Y Z