Song name
# A B C D E F G H I J K L M N O P Q R S T U V W X Y Z

The Blakes - Two Times tab

Help us improve GuitareTab! Take a short survey!
Song: Two Times
Band: The Blakes

Tuning: Drop-D

This song is a fairly easy song to play and should not take long to learn.

Intro
E---------------------------|
B---------------------------|
G---------------------------|
D--*-*--0-------------------|
A--*-*--0-------------------|
D--*-*--0-------------------|

Main Riff
E------------|--------------|
B------------|--------------|
G------------|--------------|
D-----3---5--|-------3---5--|
A--5---------|---5----------|
D------------|--------------|

Chorus
E-----------------------|
B-----------------------|
G-----------------------|
D--12-12-10-10-12-12----| (x9)
A--12-12-10-10-12-12----|
D--12-12-10-10-12-12----|

E--------------------|-------------------|
B--------------------|-------------------|
G--------------------|-------------------|
D--17-17-15-15-17-17-|-12-12-10-10-12-12-|
A--17-17-15-15-17-17-|-12-12-10-10-12-12-|
D--17-17-15-15-17-17-|-12-12-10-10-12-12-|

E---------------|--------------|
B---------------|--------------|
G---------------|--------------|
D----3-3--------|----3-3-------| (x2)
A--5-----5-5----|-5-----5-5----|
D---------------|--------------|

E--------------------|--------------|
B--------------------|--------------|
G--5-5-5-5--3-3-3-3--|--------------|
D--7-7-7-7--5-5-5-5--|--------------|
A--------------------|-5-5-5-5------|
D--------------------|--------------|


And that's it. If you want to play it how it's played live, just shift everthing up on 
(3 becomes 5, 5 becomes 7, etc.).
Related for Two Times tab