Song name
# A B C D E F G H I J K L M N O P Q R S T U V W X Y Z

The Blakes - Vampire tab

E|----------------------------------|
B|----------------------------------|
G|----------------------------------|
D|----------------------------------|  x2
A|-----3-----3-----1-----1----------|
E|-1-1---1-1---1-1---1-1---1-1--3/4-|

E|----------------------------------|
B|----------------------------------|
G|----------------------------------|
D|----------------------------------|  x2
A|-1-1-1-1-4-4-4-4-3-3-3-3----------|
E|-------------------------1-1-1-1--|
Tap to rate this tab
 
# A B C D E F G H I J K L M N O P Q R S T U V W X Y Z