Song name
# A B C D E F G H I J K L M N O P Q R S T U V W X Y Z

The Bloomfields - Please Dont Go tab

----------------------------------------------------------------------------
		      Please Don't Go - The Bloomfields
----------------------------------------------------------------------------
Tabbed by: Rolden 
Email: jrich_023@yahoo.com

Tuning: standard


       *        *        *        *
e|--5--5-----4--4-----2--2-----0--x----------|
B|--5--5-----5--5-----3--3-----0--0----------|
G|--6--6-----6--6-----2--2-----1--1----------|
D|--7--------6--------0--------2--2----------|
A|--7--------4--------x--------2-------------|
E|--5----------------------------------------|
    kahit....na.......dito.....ka pa       


       *        *        *        *
e|--5--5-----4--4-----2--2-----0--x----------|
B|--5--5-----5--5-----3--3-----0--0----------|
G|--6--6-----6--6-----2--2-----1--1----------|
D|--7--------6--------0--------2--2----------|
A|--7--------4--------x--------2-------------|
E|--5----------------------------------------|
    lagi.....na.......na lu lu ha


    ^  ^     ^  ^     ^  ^     ^  ^
e|--2--x-----2--x-----2--2-----x-------------|
B|--2--x-----3--3-----2--2-----0--0----------|
G|--2--2-----2--2-----2--2-----0--0----------|
D|--4--4-----4--4-----4--4-----2--2----------|
A|--4--4-----2--2-----4--4-----2--2----------|
E|--2--2--------------2--2-----0-------------|
    sa.......alala....aalis....ka


    ^        ^        ^        ^  ^
e|--4--4-----4--4-----2--x-----0--x----------|
B|--4--4-----5--5-----3--3-----0--x----------|
G|--4--4-----6--6-----2--2-----1--1----------|
D|--6--6-----6--6-----0--0-----2--2----------|
A|--6--6-----4--4--------------2--2----------|
E|--4--4-----------------------0--x----------|
    damdamin mo.......wag......gilan


    ^        ^        ^        ^  ^
e|--4--4-----4--4-----2--x-----2--3----------|
B|--4--4-----5--5-----3--3-----3--3----------|
G|--4--4-----6--6-----2--2-----2--2----------|
D|--6--6-----6--6-----0--0-----0--x----------|
A|--6--6-----4--4----------------------------|
E|--4--4-------------------------------------|
    hangang..dito.....ngayon........


    ^        ^        ^        ^  ^
e|--4--4-----4--4-----2--x-----0--x----------|
B|--4--4-----5--5-----3--3-----0--x----------|
G|--4--4-----6--6-----2--2-----1--1----------|
D|--6--6-----6--6-----0--0-----2--2----------|
A|--6--6-----4--4--------------2--2----------|
E|--4--4-----------------------0--x----------|
   at.......di ka....aking....yan...


uulitin lang yung mga susunod na chords jan paki
check na lang kung saan ung uulitin..




Legend:

* - strum upward
^ - strum downward (optional)



please rate, thanks



bloomfields rules
Tap to rate this tab
# A B C D E F G H I J K L M N O P Q R S T U V W X Y Z