Song name
# A B C D E F G H I J K L M N O P Q R S T U V W X Y Z

The Blow - Pardon Me tab

-This is my first tab I've submitted and I'm pretty sure it's over 95% correct.
    
The Blow- Pardon Me (solo)

E|--5--3--3--0--------------1----------------------0--0------------------|
B|--------------4--2--4--2----1--------------------------0-----0--1--1---|
G|-------------------------------4--2--4--5--4--2-----------2------------|
D|-----------------------------------------------------------------------|
A|-----------------------------------------------------------------------|
E|-----------------------------------------------------------------------|

______________________________________________________________________________

E|--5--3--0-----1--0--0---------------------------------------------0--------|
B|-----------3-----------3--0------------------------------------0-----0-----|
G|-----------------------------2---2--4--2--4--5--4--2--------2-----------2--|
D|------------------------------------------------------2--2-----------------|
A|---------------------------------------------------------------------------|
E|---------------------------------------------------------------------------|
Tap to rate this tab
# A B C D E F G H I J K L M N O P Q R S T U V W X Y Z