Song name
# A B C D E F G H I J K L M N O P Q R S T U V W X Y Z

The Blow - Hey Boy tab

-----------------------------------------------------------------------------
                             HEY BOY - The Blow
-----------------------------------------------------------------------------
Tabbed by: thenewunkindness
E-mail: thenewunkindness@gmail.com

Tuning: Standard

Difficulty: Novice

100% Tabbed by me

I couldn't find a tab of this anywhere, so I decided to try it out myself. This is my 
first tab

The variation was drowned out by the rest of the song, but I tried my best. Corrections 
are welcome! (Seriously, you won't be bothering me at all.)

Intro:
e|-------------------------------------------------------------------------|
B|-0-000-0-2-5-------------------------------------------------------------|
G|-------------------------------------------------------------------------|
D|-------------------------------------------------------------------------|
A|-------------------------------------------------------------------------|
E|-------------------------------------------------------------------------|

Main Riff:
e|--------------------------------------------------------------------------|
B|-0-000-0-2-5-2-222-2-2-0--------------------------------------------------|
G|--------------------------------------------------------------------------|
D|--------------------------------------------------------------------------|
A|--------------------------------------------------------------------------|
E|--------------------------------------------------------------------------|


Variation:
e|----------5-4-2-0--------------------------------------------------------|
B|-2-222-2-----------------------------------------------------------------|
G|-------------------------------------------------------------------------|
D|-------------------------------------------------------------------------|
A|-------------------------------------------------------------------------|
E|-------------------------------------------------------------------------|

[Intro]

How the chorus goes:
[Main Riff] x2
Hey Boy... Why you didn't call me?

[Main Riff + Variation]
I waited for days, I can't believe you didn't call

[Main Riff]

The second time the chorus is sung in this, don't play at all.

Great song! More will be added later if necessary.
Tap to rate this tab
# A B C D E F G H I J K L M N O P Q R S T U V W X Y Z