Song name
# A B C D E F G H I J K L M N O P Q R S T U V W X Y Z

The Blow - True Affection tab

THE BLOW- TRUE AFFECTION

This is my first tab. Love this song and decided I should make a tab for it. It's only 
the chorus, but I will do the entire song if there are requests. Hope it sounds right.


E------------------------|
B------------------------|
G------------------------|
D------------------------| 2x
A--0-0-12--0-0-12--------|
E------------------------|

(Instead of plucking the 12th fret on the A string, you could pluck the 7th fret on the 
D string)


E---------------------------------------|
B---------------------------------------|
G---------------------------------------|
D---------------------------------------|
A------4------4------3------3-----------|
E--1-1----1-1----0-0----0-0---0-1-2-3-4-|

E------------------------|
B------------------------|
G------------------------|
D------------------------| 2x
A--0-0-12--0-0-12--------|
E------------------------|

E---------------------------------------|
B---------------------------------------|
G---------------------------------------|
D---------------------------------------|
A------4------4------3------3-----------|
E--1-1----1-1----0-0----0-0---0-1-2-3-4-|

                        I was out of your league...
E------------------------|
B------------------------|
G------------------------|
D------------------------|
A--0-0-12--0-0-12--------|
E------------------------|

E------------------------|
B------------------------|
G------------------------|
D------------------------|
A--0-0-12--0-0-12--------|
E------------------------|

  And you were 20,000 underneath the

E---------------------------------------|
B---------------------------------------|
G---------------------------------------|
D---------------------------------------|
A------4------4------3------3-----------|
E--1-1----1-1----0-0----0-0---0-1-2-3-4-|

  sea... Waiving affections. You were out of my

E------------------------|
B------------------------|
G------------------------|
D------------------------|
A--0-0-12--0-0-12--------|
E------------------------|

  league...

E------------------------|
B------------------------|
G------------------------|
D------------------------|
A--0-0-12--0-0-12--------|
E------------------------|

  At a distance I didn't want to

E---------------------------------------|
B---------------------------------------|
G---------------------------------------|
D---------------------------------------|
A------4------4------3------3-----------|
E--1-1----1-1----0-0----0-0---0-1-2-3-4-|

  see... Down to the Bottom.
Tap to rate this tab
 
# A B C D E F G H I J K L M N O P Q R S T U V W X Y Z