Song name
# A B C D E F G H I J K L M N O P Q R S T U V W X Y Z

The Blow - True Affection tab

Okay so I played around with this for awhile and I'm pretty sure it's correct, even 
though it's odd.
My first tab, so all feedback is welcome. I included the chimey part too.



eb|---------------------------------------------------------------|
Bb|---------------------------------------------------------------|
Gb|---------------------------------------------------------------|
Db|-----7~-----7~-----7~-----7~-----4~-----4~-----3~-----3--------|  X4
Ab|-0-0----0-0----0-0----0-0--------------------------------------|
Db|-----------------------------4-4----4-4----3-3----3-3---3-4-5--|


eb|---------------------------------------------------------------|
Bb|---------------------------------------------------------------|
Gb|---------------------------------------------------------------|
Db|---------------------------------------------------------------|
Ab|---------------0-0-----------2-2-----------0-0-----------------|
Db|-0-0----2-2-----------4-4-----------2-2-----------4-4----------|

eb|---------------------------------------------------------------|
Bb|---------------------------------------------------------------|
Gb|---------------------------------------------------------------|
Db|---------------------------------------------------------------|
Ab|---------------0-0-----------2-2-2-2-2-2-2-2-------------------|
Db|-0-0----2-2-----------4-4--------------------2-2-2-2-2-2-2-2---|


eb|---------------------------------------------------------------|
Bb|---------------------------------------------------------------|
Gb|---------------------------------------------------------------|
Db|-----7~-----7~-----7~-----7~-----4~-----4~-----3~-----3--------|  X2
Ab|-0-0----0-0----0-0----0-0--------------------------------------|
Db|-----------------------------4-4----4-4----3-3----3-3---3-4-5--|


eb|---------------------------------------------------------------|
Bb|---------------------------------------------------------------|
Gb|---------------------------------------------------------------|
Db|---------------------------------------------------------------|
Ab|---------------0-0-----------2-2-----------0-0-----------------|
Db|-0-0----2-2-----------4-4-----------2-2-----------4-4----------|

eb|---------------------------------------------------------------|
Bb|---------------------------------------------------------------|
Gb|---------------------------------------------------------------|
Db|---------------------------------------------------------------|
Ab|---------------0-0-----------2-2-2-2-2-2-2-2-------------------|
Db|-0-0----2-2-----------4-4--------------------2-2-2-2-2-2-2-2---|


eb|---------------------------------------------------------------|
Bb|---------------------------------------------------------------|
Gb|---------------------------------------------------------------|
Db|-----7~-----7~-----7~-----7~-----4~-----4~-----3~-----3--------|  X2
Ab|-0-0----0-0----0-0----0-0--------------------------------------|
Db|-----------------------------4-4----4-4----3-3----3-3---3-4-5--|


eb|---------------------------------------------------------------|
Bb|-----10-12---12-13-12------------------------------------------|
Gb|---9-------9------------9-6-9-6--------------------------------|
Db|-7------------------------------9-7-9--------------------------|  X4
Ab|---------------------------------------------------------------|
Db|----------------------0----------------------------------------|
                        .

eb|---------------------------------------------------------------|
Bb|---------------------------------------------------------------|
Gb|---------------------------------------------------------------|
Db|-----7~-----7~-----7~-----7~-----4~-----4~-----3~-----3--------|
Ab|-0-0----0-0----0-0----0-0--------------------------------------|
Db|-----------------------------4-4----4-4----3-3----3-3---3-4-5--|

eb|---------------------------------------------------------------|
Bb|---------------------------------------------------------------|
Gb|---------------------------------------------------------------|
Db|-----7~-----7~-----7~-----7~-----4~-----4~---------------------|
Ab|-0-0----0-0----0-0----0-0--------------------------------------|
Db|-----------------------------4-4----4-4------------------------|
Tap to rate this tab
# A B C D E F G H I J K L M N O P Q R S T U V W X Y Z