Song name
# A B C D E F G H I J K L M N O P Q R S T U V W X Y Z

The Blows - Damn 80s Hooker tab

Intro

e --------------------------|
B ---7777777-5--5555555-----|
G ---7777777-6--6666666-----|
D --------------------------|
A --------------------------|
E --------------------------|  x6


  I'm glad, i phone you...
e --------------------------|
B ---7777777-5--5555555-----|
G ---7777777-6--6666666-----|
D --------------------------|
A --------------------------|
E --------------------------| x4


Pre-chorus

  You don't wanna see...
e -----------------------------------------------------|
B -12---------14---------12---------14--------12-------|
G -12---------14---------12---------14--------12-------|
D -12---------14---------12---------14--------12-------|
A -10--(x16)--12--(x16)--10--(x16)--12--(x8)--10--(x8)-|
E -----------------------------------------------------|


Chorus

  But it's not in your eyes...
e -----------------------------------------------------------------|
B -----------------------------------------------------------------|
G -----------------11-1111--1111x--12-1212--1212x--14-1414--1414x--|
D -12-1212--1212x--11-1111--1111x--12-1212--1212x--14-1414--1414x--|
A -12-1212--1212x---9--9-9---9-9x--10-1010--1010x--12-1212--1212x--|
E -10-1010--1010x--------------------------------------------------| (x2)


  It's you...
e ----------------------|
B ----------------------|
G -------11----12----14-|
D -12----11----12----14-|
A -12-----9----10----12-|
E -10-------------------| (x2)


  Oh oh ohhhh i know it's you...
e -----------------------------------------------------------------|
B -----------------------------------------------------------------|
G -----------------11-1111--1111x--12-1212--1212x--14-1414--1414x--|
D -12-1212--1212x--11-1111--1111x--12-1212--1212x--14-1414--1414x--|
A -12-1212--1212x---9--9-9---9-9x--10-1010--1010x--12-1212--1212x--|
E -10-1010--1010x--------------------------------------------------| (x2)


Intro

e --------------------------|
B ---7777777-5--5555555-----|
G ---7777777-6--6666666-----|
D --------------------------|
A --------------------------|
E --------------------------| x4


  I don't believe in lovers, I don' believe in queens...
e -------------|
B ---7------5--|
G ---7------6--|
D -------------|
A -------------|
E -------------| (x4)


Pre-chorus

  Said it's you..you don't wanna see...
e -----------------------------------------------------|
B -12---------14---------12---------14--------12-------|
G -12---------14---------12---------14--------12-------|
D -12---------14---------12---------14--------12-------|
A -10--(x16)--12--(x16)--10--(x16)--12--(x8)--10--(x8)-|
E -----------------------------------------------------|


Chorus

  But it's not in your eyes...
e -----------------------------------------------------------------|
B -----------------------------------------------------------------|
G -----------------11-1111--1111x--12-1212--1212x--14-1414--1414x--|
D -12-1212--1212x--11-1111--1111x--12-1212--1212x--14-1414--1414x--|
A -12-1212--1212x---9--9-9---9-9x--10-1010--1010x--12-1212--1212x--|
E -10-1010--1010x--------------------------------------------------| (x4)


  It's youuuu...
e ----------------------|
B ----------------------|
G -------11----12----14-|
D -12----11----12----14-|
A -12-----9----10----12-|
E -10-------------------| (x1)


  ohhhhh ohhhhhhhh oh o o ooo
e -----------------------------------------------------------------|
B -----------------------------------------------------------------|
G -----------------11-1111--1111x--12-1212--1212x--14-1414--1414x--|
D -12-1212--1212x--11-1111--1111x--12-1212--1212x--14-1414--1414x--|
A -12-1212--1212x---9--9-9---9-9x--10-1010--1010x--12-1212--1212x--|
E -10-1010--1010x--------------------------------------------------|


End

e ----------------------------|
B ----------------------------|
G -141414--12-11-x------------|
D -141414--12-11-x--12--------|
A -121212--10--9-x--12--------|
E ---------------x--10--------|

http://www.myspace.com/theblows
http://theblows.net/
Tap to rate this tab
# A B C D E F G H I J K L M N O P Q R S T U V W X Y Z