Song name
# A B C D E F G H I J K L M N O P Q R S T U V W X Y Z

The Blows - Sin City Lies tab

e ---------------------------------|
B ----------------------------3----|
G ---------------------3--------0--|
D ------5-------5--------0--0------|
A -----------------1-1-------------|
E -3-3-----3-3---------------------| x2

e ---------------------------------------------------|
B ---------------------------------------------------|
G ---------------------------------------------------|
D ---------------------------------------3-------3---|
A ---3-1--------33-1-------3-11----------------------|
E -3-----1-3--3------111-3------0-1--1------1-1----1-|

http://www.myspace.com/theblows
http://theblows.net/
Tap to rate this tab
# A B C D E F G H I J K L M N O P Q R S T U V W X Y Z