The Blue Van - Put My Name In The Sand chords

Highlighted       Show chord diagrams
      Am                 Dm                  ?
E-----------------|------------------|-----------------|
B-----------------|------6-----------|-------8---------|
G-----5-----------|------7-----------|-------9---------|
D-----7-----------|------7-----------|-------9---------|
A-----7-----------|------------------|-----------------|
E-----------------|------------------|-----------------|
      Am                 Em                  Dm
E-----------------|------------------|-----------------|
B-----------------|------------------|-------6---------|
G-----5-----------|------0-----------|-------7---------|
D-----7-----------|------2-----------|-------7---------|
A-----7-----------|------2-----------|-----------------|
E-----------------|------------------|-----------------|

Last part:

      Am                 Em                  Dm     ?
E-----5-----------|------0-----------|-------5------7--|
B-----5-----------|------0-----------|-------5------8--|
G-----5-----------|------0-----------|-------7------9--|
D-----7-----------|------2-----------|-------7------9--|
A-----7-----------|------2-----------|-------5------7--|
E-----5-----------|------0-----------|-------5------7--|

Solo and lead guitar will be posted later!
Tap to rate this tab
 
# A B C D E F G H I J K L M N O P Q R S T U V W X Y Z