Song name
# A B C D E F G H I J K L M N O P Q R S T U V W X Y Z

The Blue Van - Love Radar tab

-------------------------------------------------------------------------------
			     Love Radar - Blue Van feat. Nabiha
-------------------------------------------------------------------------------
Tabbed by: Smokey Baconator
Email: theSmokeyB@gmail.com

Tuning: Standard

First off, there are a couple of riffs that really carry this song. I have tabbed 
them out for easy recognition.

Second, I didn't have time to tab the bridge, sorry
Feel free to revise & edit this tab, but please give credits.

Riff A:
  A5
e|--------|--------|--------|--------|
B|--------|--------|--------|--------|
G|--------|--------|--------|--------|
D|7-------|7-5-----|--------|--------|
A|7-------|----7-6-|3---5---|6---7---|
E|5-------|--------|--------|--------|

Riff B:
  pm--     pm--     pm--     (fills)  pm--     pm--     pm--     (fills)
e|--------|--------|--------|--------|--------|--------|--------|--------|
B|--------|--------|--------|--------|--------|--------|--------|--------|
G|--------|--------|--------|--------|----5h7-|----5h7-|----5h7-|--------|
D|----5h7-|----5h7-|----5h7-|--------|----5h7-|----5h7-|----5h7-|--------|
A|----5h7-|----5h7-|----5h7-|--------|5-55----|5-55----|5-55----|--------|
E|5-55----|5-55----|5-55----|--------|--------|--------|--------|--------|


Intro:
  (Riff A)
  A5
e|--------|--------|--------|--------|
B|--------|--------|--------|--------|
G|--------|--------|--------|--------| X4
D|7-------|7-5-----|--------|--------|
A|7-------|----7-6-|3---5---|6---7---|
E|5-------|--------|--------|--------|


Verse:                               (Riff A)
  A5       C5       D5       E5       A5
e|--------|--------|--------|--------| --------|--------|--------|-------- |
B|--------|--------|--------|--------| --------|--------|--------|-------- |
G|--------|5-------|7-------|9-------|.--------|--------|--------|--------.| X2
D|7-------|5-------|7-------|9-------|.7-------|7-5-----|--------|--------.|
A|7-------|3-------|5-------|7-------| 7-------|----7-6-|3---5---|6---7--- |
E|5-------|--------|--------|--------| 5-------|--------|--------|-------- |

pre-chorus:
  pm-------------- pm-------------- pm-------------- pm--------------
  F5                                D5                 
e|----------------|----------------|----------------|----------------|
B|----------------|----------------|----------------|----------------|
G|10--10--10--10--|10--10--10--10--|7---7---7---7---|7---7---7---7---|
D|10--10--10--10--|10--10--10--10--|7---7---7---7---|7---7---7---7---|
A|8---8---8---8---|8---8---8---8---|5---5---5---5---|5---5---5---5---|
E|----------------|----------------|----------------|----------------|
  pm-------------- pm-------------- 
  F5                                E5               G5        
e|----------------|----------------|----------------|----------------|
B|----------------|----------------|----------------|----------------|
G|10--10--10--10--|10--10--10--10--|9---9---9---9---|12--12--12--12--|
D|10--10--10--10--|10--10--10--10--|9---9---9---9---|12--12--12--12--|
A|8---8---8---8---|8---8---8---8---|7---7---7---7---|10--10--10--10--|
E|----------------|----------------|----------------|----------------|


Chorus:
   A5       C5       D5       E5        A5       H5       C5       D5
e| --------|--------|--------|-------- |--------|--------|--------|--------|
B| --------|--------|--------|-------- |--------|--------|--------|--------|
G|.--------|5---5---|7---7---|9---9---.|--------|4---4---|5---5---|7---7---|
D|.7---7---|5---5---|7---7---|9---9---.|7---7---|4---4---|5---5---|7---7---|
A| 7---7---|3---3---|5---5---|7---7--- |7---7---|2---2---|3---3---|5---5---|
E| 5---5---|--------|--------|-------- |5---5---|--------|--------|--------|
  D#5      (break)  
e|--------|--------|--------|
B|--------|--------|--------|
G|8-8-8-8-|9-x-----|-------\|
D|8-8-8-8-|9-x-----|-------\|
A|6-6-6-6-|7-x-----|--------|
E|--------|--------|--------|

Bridge:
e|--------|--------|--------|--------|--------|--------|--------|--------|
B|--------|--------|--------|--------|--------|--------|--------|--------|
G|--------|--------|--------|--------|--------|--------|--------|--------|
D|--------|--------|--------|--------|--------|--------|--------|--------|
A|--------|--------|--------|--------|--------|--------|--------|--------|
E|--------|--------|--------|--------|--------|--------|--------|--------|

e|--------|--------|--------|--------|--------|--------|--------|--------|
B|--------|--------|--------|--------|--------|--------|--------|--------|
G|--------|--------|--------|--------|--------|--------|--------|--------|
D|--------|--------|--------|--------|--------|--------|--------|--------|
A|--------|--------|--------|--------|--------|--------|--------|--------|
E|--------|--------|--------|--------|--------|--------|--------|--------|


Form:

Intro
Verse1
pre-chorus
Chorus
Riff A x2
Verse2
pre-chorus
Chorus
Riff A x2
Riff B x2
Bridge
Chorus w/o break
Riff B until fade


************************************

| /   slide up
| \   slide down
| h   hammer-on
| p   pull-off
| ~   vibrato
| +   harmonic
| x   Mute note
| b   Bend
| pb  Pre-bend
| br  Bend release
| pbr Pre-bend release
| brb Bend release bend
| pm  Palm mute

| ---------------- |
|.--something-----.|
|.----------------.| repeat "something"
| ---------------- |
************************************
Tap to rate this tab
 
# A B C D E F G H I J K L M N O P Q R S T U V W X Y Z