Song name
# A B C D E F G H I J K L M N O P Q R S T U V W X Y Z

The Blue Van - Silly Boy tab

The Blue Van - Silly Boy
jrod

Guitar 1
e|-------------------------------------------------|
B|--9-9-9------------------------------------------|
G|--9-9-9------------------------------------------|
D|--9-9-9------------------------------------------|
A|--7-7-7------------------------------------------|
E|--------7797-------------------------------------|

Guitar 2
e|-----------------------------------------------------------|
B|--9-9-9------------9-9-9-----------------------------------|
G|--9-9-9------------9-9-9---------11/13--------11--------9--|
D|--9-9-9--99-11-9---9-9-9-99-11-9-------9h11p9----9h11p9----|
A|-----------------------------------------------------------|
E|-----------------------------------------------------------|

e|-------------------------------------------------------------|
B|--9-9-9------------9-9-9----------12----------10----------9--|
G|--9-9-9------------9-9-9-------------------------------------|
D|--9-9-9--99-11-9---9-9-9-99-11-9-------9h11p9-----9h11p9-----|
A|-------------------------------------------------------------|
E|-------------------------------------------------------------|

Chorus
e|----------5----7----------------------------------------|
B|----------5----7----------------------------------------|
G|---9-9----6----8---9-9----------------------------------|
D|---9-9----7----9---9-9----------------------------------|
A|---7-7-------------7-7----------------------------------|
E|--------------------------------------------------------|

e|---5-5--7-7-------4-4-5-5-7-7------------------------------|
B|---5-5--7-7-------4-4-5-5-7-7------------------------------|
G|---6-6--8-8--9-9--5-5-6-6-8-8------------------------------|
D|---7-7--9-9--9-9--6-6-7-7-9-9------------------------------|
A|-------------7-7-------------------------------------------|
E|-----------------------------------------------------------|

Breakdown
e|--------------------------------------------------------|
B|--------------------------------------------------------|
G---------------------------------------------------------|
D|--------------------------------------------------------|
A|---7-6-4-2-4----7---------------------------------------|
E|--------------------------------------------------------|
solo
e|-------------5--------------------------------------------|
B|---9-----9---5--7-5---------------------------------------|
G|-----9-------6--------------------------------------------|
D|-------9-----7--------------------------------------------|
A|----------------------------------------------------------|
E|----------------------------------------------------------|
end
e|--------------------------------------------------------|
B|--------------------------------------------------------|
G----------------12----12---------------------------------|
D|---------14-13-------13---------------------------------|
A|---11h14-------------14---------------------------------|
E|--------------------------------------------------------|
Tap to rate this tab
 
# A B C D E F G H I J K L M N O P Q R S T U V W X Y Z