Song name
# A B C D E F G H I J K L M N O P Q R S T U V W X Y Z

The Blue Van - Love Shot tab

Love Shot - The Blue Van
Created by: Mike Scott

(Opening/ Chorus ) x2
E|------------------------|--------------|---------------------------------|--|
B|------------------------|-----------3--|---------------------------------|--|
G|------------------------|-----------3--|---------------------------------|--|
D|-----------5--7--10--7--|--5--7--5--3--|--------5-----------5--7--10--7--|--|
A|--7--7--7--3--5--8---5--|--3--5--3--0--|--5--7--3--7--5--7--3--5--8---5--|--|
E|--5--5--5---------------|--------------|--3--5-----5--3--5---------------|--|


(Verse) x7
E|--------|--|
B|--------|--|
G|--------|--|
D|--5--7--|--|
A|--3--5--|--|
E|--------|--|


(Chorus ending)
E|--------|---------------|--------------|--|
B|--------|---------------|--------------|--|
G|--------|---------------|--------------|--|
D|--3--5--|--5--7--10--7--|--5--7--5--7--|--|
A|--1--3--|--3--5--8---5--|--3--5--3--5--|--|
E|--------|---------------|--------------|--|


(Chorus ending continued)
E|--------------|--------|
B|-----3--------|--------|
G|-----3--------|--------|
D|--3--3--5--5--|--5--7--|
A|--1--0--3--3--|--3--5--|
E|--------------|--------|


(Small solo background noise)
E|--------------|
B|--------------|
G|--------------|
D|--5--7--5--7--|
A|--3--5--3--5--|
E|--------------|
Tap to rate this tab
 
# A B C D E F G H I J K L M N O P Q R S T U V W X Y Z