Song name
# A B C D E F G H I J K L M N O P Q R S T U V W X Y Z

The Blueprint - 3 Days tab

This is a newly signed band from California... http://www.blueprintradio.com with songs 
a couple of movie soundtracks.

Intro x 4 [Chords = Dm, C, G]
|----1-------------3----------------------------------------------------------|
|----3-----1-------0----0------0----------------------------------------------|
|----2-----0-------0----0------0----------------------------------------------|
|--0-0-----2h3-----0----0h2----2h0--------------------------------------------|
|----x---3--3------2----------------------------------------------------------|
|----x-------------3----------------------------------------------------------|

Verse x 4 fingerpick [Chords = DM, C, G]
|--1-----0-----3-------|----------------------------------------------------|
|--3-----1-----0-------|----------------------------------------------------|
|--2-----0-----0-------|----------------------------------------------------|
|--0-----2-----0-------|----------------------------------------------------|
|--x-----3-----2-------|----------------------------------------------------|
|--x-----x-----3-------|----------------------------------------------------|

Pre-Chorus x 2 [Chords= Bb, C/G]
|--1-----0-----------------|------------------------------------------------|
|--1-----1-----------------|------------------------------------------------|
|--3-----0-----------------|------------------------------------------------|
|--3-----2-----------------|------------------------------------------------|
|--1-----3-----------------|------------------------------------------------|
|--x-----3-----------------|------------------------------------------------|

Chorus x 4 [Chords= Dm, Bb, F, C, Asus (last chord of verse/used once)]
|--1-----1-----1-----3-----0--|----------------------------------------------|
|--3-----1-----1-----3-----1--|----------------------------------------------|
|--2-----3-----2-----0-----0--|----------------------------------------------|
|--0-----3-----3-----0-----2--|----------------------------------------------|
|--x-----1-----3-----2-----0--|----------------------------------------------|
|--x-----x-----1-----x-----x--|----------------------------------------------|
Tap to rate this tab
 
# A B C D E F G H I J K L M N O P Q R S T U V W X Y Z